Fleetwood Mac - Need Your Love So Bad (Bass)

01234567891011121314151617181920212223
E
B
G
D
A
E
B
0 1 2 3 4 5 6 7 8 9 10 11 12 13 14 15 16 17 18 19 20 21 22 23
(/) Slide Up  (\) Slide Down  (h) Hammer On  (p) Pull Off  (b) Bend (r) Release (v) Vibrato

Stave 1:

G|-----------------------------------------------------------------------------------------
D|--7-----------------7--------7--------------------------------------------7--7-----------
A|-----------7-----7--------7-----------5--------5-----5--6-----5--6-----7--------7--8--9--
E|--------9--------------------------5--------5--------------------------------------------

Stave 2:

G|--------------------------------------------------------
D|--------9-----------------7-----------------7-----------
A|-----9--------9--7-----7--------7--5-----5--------5--7--
E|--------------------------------------------------------

Stave 3:

G|--------------------------------------------------------------------------------------------
D|-----7-----------------7--------7--------------------------------------------7--7-----------
A|--7-----------7-----7--------7-----------5--------5-----5--6-----5--6-----7--------7--8--9--
E|-----------9--------------------------5--------5--------------------------------------------

Stave 4:

G|--------------------------------------------------------
D|--------9-----------------7-----------------7-----------
A|-----9--------9--7-----7--------7--5-----5--------5--7--
E|--------------------------------------------------------

Stave 5:

G|--------------------------------------------------------------------------------------------------
D|-----7-----------------7--------7--------------------------------------------------7--7-----------
A|--7-----------7-----7--------7-----------5--------5--5-----5--6-----6--6--6--6--6--------7--8--9--
E|-----------9--------------------------5--------5--------5-----------------------------------------

Stave 6:

G|--------------------------------------------------------
D|--------9-----------------7-----------------7--------7--
A|-----9--------9--7-----7--------7--5-----5--------7-----
E|--------------------------------------------------------

Stave 7:

G|--------------------------------------------------------------------------------------------
D|-----7-----------------------------------------------------7--7--------------7--7-----7--7--
A|--------7--4--5--5-----5--5-----5--6--6-----6--6-----6--------------7--7-----------7--------
E|--------------------5--------5-----------6--------6--------------9--------9-----------------

Stave 8:

G|-----------------------------------------------------------------------------------
D|--------9--9--------9--9-----------------------------------------------------------
A|-----9-----------9-----------9-----------------------7--7-----7--8--8--7--7-----7--
E|--------------------------------7--7-----7--7--7-----------7-----------------7-----

Stave 9:

G|--------------------------------------------------------------------------------------------------
D|--------7--------------7-----7-----------------------------------------------------7--7-----------
A|--------------7-----7-----7-----------5--------5-----5--6-----5--6--6--6--6--6--6--------7--8--9--
E|-----------9-----------------------5--------5-----------------------------------------------------

Stave 10:

G|--------------------------------------------------------------------------------------------
D|--------9-----------------7--------------7--------------------------------------7--------7--
A|-----9--------9--7-----7-----7--5-----5--------7-----7--7-----0--------7-----7--------7-----
E|-----------------------------------------------------------9--------9-----------------------

Stave 11:

G|-----------------------------------------
D|-----7-----------------------------------
A|--------7--4--5--5-----5--5-----5--6--6--
E|--------------------5--------5-----------

							http://www.guitartabcreator.com
Chords

Instruments
{"strings":[[[".","_",".",".","_",".",".","_",".",".","_",".",".","_",".",".","_",".",".","_",".",".","_",".",".",".",".",".","."],[7,"_",".",".","_",".",7,"_",".",7,"_",".",".","_",".",".","_",".",".","_",".",".","_",".",7,7,".",".","."],[".","_",".",7,"_",7,".","_",7,".","_",".",5,"_",".",5,"_",5,6,"_",5,6,"_",7,".",".",7,8,9],[".","_",9,".","_",".",".","_",".",".","_",5,".","_",5,".","_",".",".","_",".",".","_",".",".",".",".",".","."]],[["_",".",".","_",".",".","_",".",".","_",".",".","_",".",".","_",".","."],["_",".",9,"_",".",".","_",".",7,"_",".",".","_",".",7,"_",".","."],["_",9,".","_",9,7,"_",7,".","_",7,5,"_",5,".","_",5,7],["_",".",".","_",".",".","_",".",".","_",".",".","_",".",".","_",".","."]],[[".",".","_",".",".","_",".",".","_",".",".","_",".",".","_",".",".","_",".",".","_",".",".","_",".",".",".",".",".","."],[".",7,"_",".",".","_",".",7,"_",".",7,"_",".",".","_",".",".","_",".",".","_",".",".","_",".",7,7,".",".","."],[7,".","_",".",7,"_",7,".","_",7,".","_",".",5,"_",".",5,"_",5,6,"_",5,6,"_",7,".",".",7,8,9],[".",".","_",9,".","_",".",".","_",".",".","_",5,".","_",5,".","_",".",".","_",".",".","_",".",".",".",".",".","."]],[["_",".",".","_",".",".","_",".",".","_",".",".","_",".",".","_",".","."],["_",".",9,"_",".",".","_",".",7,"_",".",".","_",".",7,"_",".","."],["_",9,".","_",9,7,"_",7,".","_",7,5,"_",5,".","_",5,7],["_",".",".","_",".",".","_",".",".","_",".",".","_",".",".","_",".","."]],[[".",".","_",".",".","_",".",".","_",".",".","_",".",".","_",".",".",".",".",".",".","_",".",".",".",".",".",".",".",".",".","."],[".",7,"_",".",".","_",".",7,"_",".",7,"_",".",".","_",".",".",".",".",".",".","_",".",".",".",".",".",7,7,".",".","."],[7,".","_",".",7,"_",7,".","_",7,".","_",".",5,"_",".",5,5,".",5,6,"_",6,6,6,6,6,".",".",7,8,9],[".",".","_",9,".","_",".",".","_",".",".","_",5,".","_",5,".",".",5,".",".","_",".",".",".",".",".",".",".",".",".","."]],[["_",".",".","_",".",".","_",".",".","_",".",".","_",".",".","_",".","."],["_",".",9,"_",".",".","_",".",7,"_",".",".","_",".",7,"_",".",7],["_",9,".","_",9,7,"_",7,".","_",7,5,"_",5,".","_",7,"."],["_",".",".","_",".",".","_",".",".","_",".",".","_",".",".","_",".","."]],[["_",".",".",".",".",".",".",".",".",".",".",".",".",".",".",".",".",".","_",".",".",".",".",".",".",".",".",".",".","."],["_",7,".",".",".",".",".",".",".",".",".",".",".",".",".",".",".",".","_",7,7,".",".",".",".",7,7,".",7,7],["_",".",7,4,5,5,".",5,5,".",5,6,6,".",6,6,".",6,"_",".",".",".",7,7,".",".",".",7,".","."],["_",".",".",".",".",".",5,".",".",5,".",".",".",6,".",".",6,".","_",".",".",9,".",".",9,".",".",".",".","."]],[[".",".",".",".","_",".",".",".","_",".",".",".","_",".",".",".","_",".",".",".",".",".",".",".",".",".","."],[".",".",9,9,"_",".",9,9,"_",".",".",".","_",".",".",".","_",".",".",".",".",".",".",".",".",".","."],[".",9,".",".","_",9,".",".","_",9,".",".","_",".",".",".","_",7,7,".",7,8,8,7,7,".",7],[".",".",".",".","_",".",".",".","_",".",7,7,"_",7,7,7,"_",".",".",7,".",".",".",".",".",7,"."]],[[".",".",".",".",".","_",".",".",".",".","_",".",".","_",".",".","_",".",".","_",".",".",".",".",".",".",".",".",".",".",".","."],[".",".",7,".",".","_",".",7,".",7,"_",".",".","_",".",".","_",".",".","_",".",".",".",".",".",".",".",7,7,".",".","."],[".",".",".",".",7,"_",7,".",7,".","_",".",5,"_",".",5,"_",5,6,"_",5,6,6,6,6,6,6,".",".",7,8,9],[".",".",".",9,".","_",".",".",".",".","_",5,".","_",5,".","_",".",".","_",".",".",".",".",".",".",".",".",".",".",".","."]],[["_",".",".","_",".",".","_",".",".",".",".","_",".",".","_",".","_",".",".",".",".","_",".",".","_",".",".","_",".","."],["_",".",9,"_",".",".","_",".",7,".",".","_",".",7,"_",".","_",".",".",".",".","_",".",".","_",".",7,"_",".",7],["_",9,".","_",9,7,"_",7,".",7,5,"_",5,".","_",7,"_",7,7,".",0,"_",".",7,"_",7,".","_",7,"."],["_",".",".","_",".",".","_",".",".",".",".","_",".",".","_",".","_",".",".",9,".","_",9,".","_",".",".","_",".","."]],[["_",".",".",".",".",".",".",".",".",".",".",".","."],["_",7,".",".",".",".",".",".",".",".",".",".","."],["_",".",7,4,5,5,".",5,5,".",5,6,6],["_",".",".",".",".",".",5,".",".",5,".",".","."]]],"numberofstrings":4,"notes":["G","D","A","E"],"capo":0,"stringnotes":["G2","D2","A1","E1"],"comments":["Stave 1:","Stave 2:","Stave 3:","Stave 4:","Stave 5:","Stave 6:","Stave 7:","Stave 8:","Stave 9:","Stave 10:","Stave 11:"],"timing":[["W",null,"W","W",null,"W","W",null,"W","W",null,"W","W",null,"W","W",null,"W","W",null,"W","W",null,"W","W","W","W","W","W"],[null,"W","W",null,"W","W",null,"W","W",null,"W","W",null,"W","W",null,"W","W","W"],["W","W",null,"W","W",null,"W","W",null,"W","W",null,"W","W",null,"W","W",null,"W","W",null,"W","W",null,"W","W","W","W","W","W"],[null,"W","W",null,"W","W",null,"W","W",null,"W","W",null,"W","W",null,"W","W","W"],["W","W",null,"W","W",null,"W","W",null,"W","W",null,"W","W",null,"W","W","W","W","W","W",null,"W","W","W","W","W","W","W","W","W","W"],[null,"W","W",null,"W","W",null,"W","W",null,"W","W",null,"W","W",null,"W","W"],[null,"W","W","W","W","W","W","W","W","W","W","W","W","W","W","W","W","W",null,"W","W","W","W","W","W","W","W","W","W","W"],[null,"W","W","W",null,"W","W","W",null,"W","W","W",null,"W","W","W",null,"W","W","W","W","W","W","W","W","W"],[null,"W","W","W",null,"W","W","W","W",null,"W","W","W","W","W",null,"W","W",null,"W","W","W","W","W","W","W","W","W","W","W","W"],[null,"W","W",null,"W","W",null,"W","W","W","W",null,"W","W",null,"W",null,"W","W","W","W",null,"W","W",null,"W","W",null,"W","W"],[null,"W","W","W","W","W","W","W","W","W","W","W","W"]],"timingvisible":false,"tabcounter":13,"stave":10,"totalstaves":11,"instrument":"4bass","selectedtuning":"4bass","version":"13"}

Member for

10 months 3 weeks
Submitted by Euromagnet on Wed, 2021-01-13 15:55