The Eagles - Desperado (Bass)

01234567891011121314151617181920212223
E
B
G
D
A
E
B
0 1 2 3 4 5 6 7 8 9 10 11 12 13 14 15 16 17 18 19 20 21 22 23
(/) Slide Up  (\) Slide Down  (h) Hammer On  (p) Pull Off  (b) Bend (r) Release (v) Vibrato

Don't your feet get cold ......

G|-----------------------------------------------------------------------------------------
D|-----------------------------------------------------------------------------------------
A|--------2-----3-----------------3-----------------------2-----3-----------------------5--
E|--0-----------------3--2--0-----------3-----------0-----------------3-----5-----5--------

Desperado, why.......

G|-----------------------------------------------------------------------------------
D|-----------------------------------------------------------------------------------
A|--------0--2--3-----3-----------------------5-----------0--2--3-----3--------------
E|--3--3--------------------3--2--0-----5-----------3-----------------------3--2--0--

Stave 3:

G|--------------------------------------
D|--------------------------------------
A|-----3--2--0-----5--6--7--------------
E|--------------------------------5--3--

							http://www.guitartabcreator.com
Chords

Instruments
{"strings":[[[".","_",".","_",".","_",".",".",".","_",".","_",".","_",".",".",".","_",".","_",".","_",".","_",".","_",".","_","."],[".","_",".","_",".","_",".",".",".","_",".","_",".","_",".",".",".","_",".","_",".","_",".","_",".","_",".","_","."],[".","_",2,"_",3,"_",".",".",".","_",3,"_",".","_",".",".",".","_",2,"_",3,"_",".","_",".","_",".","_",5],[0,"_",".","_",".","_",3,2,0,"_",".","_",3,"_",".",".",0,"_",".","_",".","_",3,"_",5,"_",5,"_","."]],[[".",".",".",".",".","_",".","_",".",".",".","_",".","_",".","_",".","_",".",".",".","_",".","_",".",".","."],[".",".",".",".",".","_",".","_",".",".",".","_",".","_",".","_",".","_",".",".",".","_",".","_",".",".","."],[".",".",0,2,3,"_",3,"_",".",".",".","_",".","_",5,"_",".","_",0,2,3,"_",3,"_",".",".","."],[3,3,".",".",".","_",".","_",3,2,0,"_",5,"_",".","_",3,"_",".",".",".","_",".","_",3,2,0]],[["_",".",".",".","_",".",".",".","_","_",".","."],["_",".",".",".","_",".",".",".","_","_",".","."],["_",3,2,0,"_",5,6,7,"_","_",".","."],["_",".",".",".","_",".",".",".","_","_",5,3]]],"numberofstrings":4,"notes":["G","D","A","E"],"capo":0,"stringnotes":["G2","D2","A1","E1"],"comments":["Don't your feet get cold ......","Desperado, why.......","Stave 3:"],"timing":[["W","W","W","W","W",null,"W","W","W","W","W",null,"W",null,"W","W","W",null,"W",null,"W",null,"W",null,"W",null,"W"],["W","W","W","W","W",null,"W",null,"W","W","W",null,"W",null,"W",null,"W",null,"W","W","W",null,"W",null,"W","W","W"],[null,"W","W","W",null,"W","W","W",null,null,"W","W"]],"timingvisible":false,"tabcounter":12,"stave":2,"totalstaves":3,"instrument":"4bass","selectedtuning":"4bass","version":"13"}

Member for

10 months 3 weeks
Submitted by Euromagnet on Wed, 2020-11-04 13:58