Bløf - (Hier) Aan De Kust (Bass)

Chords

01234567891011121314151617181920212223
E
B
G
D
A
E
B
0 1 2 3 4 5 6 7 8 9 10 11 12 13 14 15 16 17 18 19 20 21 22 23
(/) Slide Up  (\) Slide Down  (h) Hammer On  (p) Pull Off  (b) Bend (r) Release (v) Vibrato

Chorus:   2X

G|--------------------------------------------------------
D|--5--2--------------2--------2--------2-----------------
A|--------2--2--3--5-----5--3-----5--3-----5--3--0--2--3--
E|--------------------------------------------------------

Verse:

G|--------------------------------------
D|--5--------5--------5--------5--------
A|-----7--2-----7--2-----7--2-----7--2--
E|--------------------------------------

Verse:

G|--------------------------
D|--------------------------
A|--0--2--3--3--5--5--5--5--
E|--------------------------

Chorus:

G|--------------------------------------------------------
D|--5--2--------------2--------2--------2-----------------
A|--------2--2--3--5-----5--3-----5--3-----5--3--0--2--3--
E|--------------------------------------------------------

Chorus:

G|-----------------------------------------------------------------------
D|--5--2--------------2--------2--------2--------------------------------
A|--------2--2--3--5-----5--3-----5--3-----5--3--0--2--3--------6--------
E|--------------------------------------------------------------------3--

							http://www.guitartabcreator.com
Instruments
{"strings":[[[".",".",".",".",".",".",".",".",".",".",".",".",".",".",".",".",".","."],[5,2,".",".",".",".",2,".",".",2,".",".",2,".",".",".",".","."],[".",".",2,2,3,5,".",5,3,".",5,3,".",5,3,0,2,3],[".",".",".",".",".",".",".",".",".",".",".",".",".",".",".",".",".","."]],[[".",".",".",".",".",".",".",".",".",".",".","."],[5,".",".",5,".",".",5,".",".",5,".","."],[".",7,2,".",7,2,".",7,2,".",7,2],[".",".",".",".",".",".",".",".",".",".",".","."]],[[".",".",".",".",".",".",".","."],[".",".",".",".",".",".",".","."],[0,2,3,3,5,5,5,5],[".",".",".",".",".",".",".","."]],[[".",".",".",".",".",".",".",".",".",".",".",".",".",".",".",".",".","."],[5,2,".",".",".",".",2,".",".",2,".",".",2,".",".",".",".","."],[".",".",2,2,3,5,".",5,3,".",5,3,".",5,3,0,2,3],[".",".",".",".",".",".",".",".",".",".",".",".",".",".",".",".",".","."]],[[".",".",".",".",".",".",".",".",".",".",".",".",".",".",".",".",".",".","_",".","_",".","."],[5,2,".",".",".",".",2,".",".",2,".",".",2,".",".",".",".",".","_",".","_",".","."],[".",".",2,2,3,5,".",5,3,".",5,3,".",5,3,0,2,3,"_",".",6,".","."],[".",".",".",".",".",".",".",".",".",".",".",".",".",".",".",".",".",".","_",".","_",".",3]]],"numberofstrings":4,"notes":["G","D","A","E"],"capo":0,"stringnotes":["G2","D2","A1","E1"],"comments":["Chorus: 2X","Verse:","Verse:","Chorus:","Chorus:"],"timing":[["W","W","W","W","W","W","W","W","W","W","W","W","W","W","W","W","W","W",null,null,null,null,"W"],["W","W","W","W","W","W","W","W","W","W","W","W"],["W","W","W","W","W","W","W","W",null,null,null,null,null,null,null,null,null,null,null,null,null,null,"W"],["W","W","W","W","W","W","W","W","W","W","W","W","W","W","W","W","W","W"],["W","W","W","W","W","W","W","W","W","W","W","W","W","W","W","W","W","W",null,null,"W",null,"W","W","W"]],"timingvisible":false,"tabcounter":23,"stave":4,"totalstaves":5,"instrument":"4bass","selectedtuning":"4bass","version":"13"}

Member for

1 month 1 week
Submitted by Euromagnet on Tue, 2020-10-27 02:24