The Beatles - Norwegian Wood (Bass)

01234567891011121314151617181920212223
E
B
G
D
A
E
B
0 1 2 3 4 5 6 7 8 9 10 11 12 13 14 15 16 17 18 19 20 21 22 23
(/) Slide Up  (\) Slide Down  (h) Hammer On  (p) Pull Off  (b) Bend (r) Release (v) Vibrato

Stave 1:

G|--------------------------------------------------7--9-----------------------------7--9--------
D|-----------------------------------------------9--------------------------------9--------------
A|--7-----7-----7-----7-----------7-----7-----7-----------7--------7-----7-----7-----------7-----
E|-----7-----7-----7-----7-----------7-----7-----------------7--------7-----7-----------------7--

Stave 2:

G|--------------------------------------------------
D|--------------7-----7--------------5--7--7--9--9--
A|--7--7--7--7-----7-----7--7-----7-----------------
E|-----------------------------7--------------------

Stave 3:

G|--------------------7--9-----------------------------7--9--------
D|-----------------9--------------------------------9--------------
A|--7-----7-----7-----------7--------7-----7-----7-----------7-----
E|-----7-----7-----------------7--------7-----7-----------------7--

Stave 4:

G|--------------------7--9-----------------------------7--9--------
D|-----------------9--------------------------------9--------------
A|--7-----7-----7-----------7--------7-----7-----7-----------7-----
E|-----7-----7-----------------7--------7-----7-----------------7--

Stave 5:

G|--------------------------------------------------
D|--------------7-----7--------------5--7--7--9--9--
A|--7--7--7--7-----7-----7--7-----7-----------------
E|-----------------------------7--------------------

Stave 6:

G|--------------------7--9-----------------------------7--9--------
D|-----------------9--------------------------------9--------------
A|--7-----7-----7-----------7--------7-----7-----7-----------7-----
E|-----7-----7-----------------7--------7-----7-----------------7--

Stave 7:

G|--------------------7--9-----
D|-----------------9-----------
A|--7-----7-----7-----------7--
E|-----7-----7-----------------

							http://www.guitartabcreator.com
Chords

Instruments
{"strings":[[[".",".",".",".",".",".",".",".","_","_",".",".",".",".",".",".",7,9,".",".","_",".",".",".",".",".",".",7,9,".","."],[".",".",".",".",".",".",".",".","_","_",".",".",".",".",".",9,".",".",".",".","_",".",".",".",".",".",9,".",".",".","."],[7,".",7,".",7,".",7,".","_","_",7,".",7,".",7,".",".",".",7,".","_",7,".",7,".",7,".",".",".",7,"."],[".",7,".",7,".",7,".",7,"_","_",".",7,".",7,".",".",".",".",".",7,"_",".",7,".",7,".",".",".",".",".",7]],[[".",".",".",".",".",".",".",".",".",".",".",".",".",".",".","."],[".",".",".",".",7,".",7,".",".",".",".",5,7,7,9,9],[7,7,7,7,".",7,".",7,7,".",7,".",".",".",".","."],[".",".",".",".",".",".",".",".",".",7,".",".",".",".",".","."]],[[".",".",".",".",".",".",7,9,".",".","_",".",".",".",".",".",".",7,9,".","."],[".",".",".",".",".",9,".",".",".",".","_",".",".",".",".",".",9,".",".",".","."],[7,".",7,".",7,".",".",".",7,".","_",7,".",7,".",7,".",".",".",7,"."],[".",7,".",7,".",".",".",".",".",7,"_",".",7,".",7,".",".",".",".",".",7]],[[".",".",".",".",".",".",7,9,".",".","_",".",".",".",".",".",".",7,9,".","."],[".",".",".",".",".",9,".",".",".",".","_",".",".",".",".",".",9,".",".",".","."],[7,".",7,".",7,".",".",".",7,".","_",7,".",7,".",7,".",".",".",7,"."],[".",7,".",7,".",".",".",".",".",7,"_",".",7,".",7,".",".",".",".",".",7]],[[".",".",".",".",".",".",".",".",".",".",".",".",".",".",".","."],[".",".",".",".",7,".",7,".",".",".",".",5,7,7,9,9],[7,7,7,7,".",7,".",7,7,".",7,".",".",".",".","."],[".",".",".",".",".",".",".",".",".",7,".",".",".",".",".","."]],[[".",".",".",".",".",".",7,9,".",".","_",".",".",".",".",".",".",7,9,".","."],[".",".",".",".",".",9,".",".",".",".","_",".",".",".",".",".",9,".",".",".","."],[7,".",7,".",7,".",".",".",7,".","_",7,".",7,".",7,".",".",".",7,"."],[".",7,".",7,".",".",".",".",".",7,"_",".",7,".",7,".",".",".",".",".",7]],[[".",".",".",".",".",".",7,9,"."],[".",".",".",".",".",9,".",".","."],[7,".",7,".",7,".",".",".",7],[".",7,".",7,".",".",".",".","."]]],"numberofstrings":4,"notes":["G","D","A","E"],"capo":0,"stringnotes":["G2","D2","A1","E1"],"comments":["Stave 1:","Stave 2:","Stave 3:","Stave 4:","Stave 5:","Stave 6:","Stave 7:"],"timing":[["W","W","W","W","W","W","W","W",null,null,"W","W","W","W","W","W","W","W","W","W",null,"W","W","W","W","W","W","W","W","W","W"],["W","W","W","W","W","W","W","W","W","W","W","W","W","W","W","W"],["W","W","W","W","W","W","W","W","W","W",null,"W","W","W","W","W","W","W","W","W","W"],["W","W","W","W","W","W","W","W","W","W",null,"W","W","W","W","W","W","W","W","W","W"],["W","W","W","W","W","W","W","W","W","W","W","W","W","W","W","W"],["W","W","W","W","W","W","W","W","W","W",null,"W","W","W","W","W","W","W","W","W","W"],["W","W","W","W","W","W","W","W","W"]],"timingvisible":false,"tabcounter":9,"stave":6,"totalstaves":7,"instrument":"4bass","selectedtuning":"4bass","version":"13"}

Member for

10 months 3 weeks
Submitted by Euromagnet on Thu, 2020-12-24 12:13