Anouk - Lovin' Whiskey (Bass)

01234567891011121314151617181920212223
E
B
G
D
A
E
B
0 1 2 3 4 5 6 7 8 9 10 11 12 13 14 15 16 17 18 19 20 21 22 23
(/) Slide Up  (\) Slide Down  (h) Hammer On  (p) Pull Off  (b) Bend (r) Release (v) Vibrato

Intro:

G|-----------------------------------------------
D|--1-----------------------1--------------------
A|--------3-----------1-----------3-----------1--
E|-----------0--1--------------------0--1--------

Stave 2:

G|-----------------------------------------------------------
D|--1-----------------------1-----------------------1-----0--
A|--------3-----------1-----------3-----------1--------------
E|-----------0--1--------------------0--1--------------------

Stave 3:

G|--------------------------------------------------------------------------------
D|--------------------------------------------------------------------------------
A|-----3-----------6-----3-----------6-----3-----------6-----3-----------1-----6--
E|--------1--4--------------1--4--------------1--4-----------------1--3-----------

Stave 4:

G|-----------------------------------------------------------
D|--1-----------------------1-----------------------1-----0--
A|--------3-----------1-----------3-----------1--------------
E|-----------0--1--------------------0--1--------------------

Stave 5:

G|--------------------------------------------------------------------------------
D|--------------------------------------------------------------------------------
A|-----3-----------6-----3-----------6-----3-----------6-----3-----------1-----6--
E|--------1--4--------------1--4--------------1--4-----------------1--3-----------

Stave 6:

G|-----------------------------------------------------------
D|--1-----------------------1-----------------------1-----0--
A|--------3-----------1-----------3-----------1--------------
E|-----------0--1--------------------0--1--------------------

Stave 7:

G|--------------------------------------------------------------------------------
D|--------------------------------------------------------------------------------
A|-----3-----------6-----3-----------6-----3-----------6-----3-----------1-----6--
E|--------1--4--------------1--4--------------1--4-----------------1--3-----------

Instrumentaal:

G|-----------------------------------------------------------
D|--1-----------------------1-----------------------1-----0--
A|--------3-----------1-----------3-----------1--------------
E|-----------0--1--------------------0--1--------------------

Stave 9:

G|--------------------------------------------------------------------------------------
D|--------------------------------------------------------------------------------------
A|-----3-----------6-----3-----------6-----3-----------6-----3-----------1-----6-----6--
E|--------1--4--------------1--4--------------1--4-----------------1--3-----------------

							http://www.guitartabcreator.com
Chords

Instruments
{"strings":[[[".","_",".",".",".","_",".","_",".","_",".",".",".","_","."],[1,"_",".",".",".","_",".","_",1,"_",".",".",".","_","."],[".","_",3,".",".","_",1,"_",".","_",3,".",".","_",1],[".","_",".",0,1,"_",".","_",".","_",".",0,1,"_","."]],[[".","_",".",".",".","_",".","_",".","_",".",".",".","_",".","_",".","_","."],[1,"_",".",".",".","_",".","_",1,"_",".",".",".","_",".","_",1,"_",0],[".","_",3,".",".","_",1,"_",".","_",3,".",".","_",1,"_",".","_","."],[".","_",".",0,1,"_",".","_",".","_",".",0,1,"_",".","_",".","_","."]],[[".",".",".",".","_",".","_",".",".",".","_",".","_",".",".",".","_",".","_",".","_",".",".",".","_","."],[".",".",".",".","_",".","_",".",".",".","_",".","_",".",".",".","_",".","_",".","_",".",".",".","_","."],[".",3,".",".","_",6,"_",3,".",".","_",6,"_",3,".",".","_",6,"_",3,"_",".",".",1,"_",6],[".",".",1,4,"_",".","_",".",1,4,"_",".","_",".",1,4,"_",".","_",".","_",1,3,".","_","."]],[[".","_",".",".",".","_",".","_",".","_",".",".",".","_",".","_",".","_","."],[1,"_",".",".",".","_",".","_",1,"_",".",".",".","_",".","_",1,"_",0],[".","_",3,".",".","_",1,"_",".","_",3,".",".","_",1,"_",".","_","."],[".","_",".",0,1,"_",".","_",".","_",".",0,1,"_",".","_",".","_","."]],[[".",".",".",".","_",".","_",".",".",".","_",".","_",".",".",".","_",".","_",".","_",".",".",".","_","."],[".",".",".",".","_",".","_",".",".",".","_",".","_",".",".",".","_",".","_",".","_",".",".",".","_","."],[".",3,".",".","_",6,"_",3,".",".","_",6,"_",3,".",".","_",6,"_",3,"_",".",".",1,"_",6],[".",".",1,4,"_",".","_",".",1,4,"_",".","_",".",1,4,"_",".","_",".","_",1,3,".","_","."]],[[".","_",".",".",".","_",".","_",".","_",".",".",".","_",".","_",".","_","."],[1,"_",".",".",".","_",".","_",1,"_",".",".",".","_",".","_",1,"_",0],[".","_",3,".",".","_",1,"_",".","_",3,".",".","_",1,"_",".","_","."],[".","_",".",0,1,"_",".","_",".","_",".",0,1,"_",".","_",".","_","."]],[[".",".",".",".","_",".","_",".",".",".","_",".","_",".",".",".","_",".","_",".","_",".",".",".","_","."],[".",".",".",".","_",".","_",".",".",".","_",".","_",".",".",".","_",".","_",".","_",".",".",".","_","."],[".",3,".",".","_",6,"_",3,".",".","_",6,"_",3,".",".","_",6,"_",3,"_",".",".",1,"_",6],[".",".",1,4,"_",".","_",".",1,4,"_",".","_",".",1,4,"_",".","_",".","_",1,3,".","_","."]],[[".","_",".",".",".","_",".","_",".","_",".",".",".","_",".","_",".","_","."],[1,"_",".",".",".","_",".","_",1,"_",".",".",".","_",".","_",1,"_",0],[".","_",3,".",".","_",1,"_",".","_",3,".",".","_",1,"_",".","_","."],[".","_",".",0,1,"_",".","_",".","_",".",0,1,"_",".","_",".","_","."]],[[".",".",".",".","_",".","_",".",".",".","_",".","_",".",".",".","_",".","_",".","_",".",".",".","_",".","_","."],[".",".",".",".","_",".","_",".",".",".","_",".","_",".",".",".","_",".","_",".","_",".",".",".","_",".","_","."],[".",3,".",".","_",6,"_",3,".",".","_",6,"_",3,".",".","_",6,"_",3,"_",".",".",1,"_",6,"_",6],[".",".",1,4,"_",".","_",".",1,4,"_",".","_",".",1,4,"_",".","_",".","_",1,3,".","_",".","_","."]]],"numberofstrings":4,"notes":["G","D","A","E"],"capo":0,"stringnotes":["G2","D2","A1","E1"],"comments":["Intro:","Stave 2:","Stave 3:","Stave 4:","Stave 5:","Stave 6:","Stave 7:","Instrumentaal:","Stave 9:"],"timing":[["W","W","W","W","W",null,"W",null,"W",null,"W","W","W",null,"W"],[null,null,null,null,null,null,null,null,null,null,null,null,null,null,null,null,"W",null,"W"],[null,"W","W","W",null,"W",null,"W","W","W",null,"W",null,"W","W","W",null,"W",null,"W",null,"W","W","W",null,"W","W"],[],[],[],[],[],[null,null,null,null,null,null,null,null,null,null,null,null,null,null,null,null,null,null,null,null,null,null,null,null,null,null,null,"W"]],"timingvisible":false,"tabcounter":28,"stave":8,"totalstaves":9,"instrument":"4bass","selectedtuning":"4bass","version":"13"}

Member for

10 months 3 weeks
Submitted by Euromagnet on Fri, 2020-11-06 13:23