Anouk - Lost (Bass)

01234567891011121314151617181920212223
E
B
G
D
A
E
B
0 1 2 3 4 5 6 7 8 9 10 11 12 13 14 15 16 17 18 19 20 21 22 23
(/) Slide Up  (\) Slide Down  (h) Hammer On  (p) Pull Off  (b) Bend (r) Release (v) Vibrato

Lost in this world

G|-----------------------------------------------------------------------
D|-----------------------------------------------------------------------
A|--------------3-----------------------3-----------------------3--------
E|--3-----2-----------2-----3-----2-----------2-----3-----2-----------2--

Stave 2:

G|--------------------------------------------------------------------
D|--------------------------------------------------------------------
A|--------------3--------------------------0--5-----3-----2--0-----5--
E|--3-----2-----------2-----3-----3--2--------------------------------

Stave 3:

G|--------------------------------------------------------7--
D|--------------------------------2-----------2-----4--------
A|--------0--2--3--5--3-----3--5-----5-----5-----------------
E|--2--3-----------------------------------------------------

Stave 4:

G|-----------------------------------------------------------------
D|-----------------------------------------------------------------
A|-----------------------------------------0--2--3-----2--0-----5--
E|--------------------------3-----3--2-----------------------------

Stave 5:

G|-----------------------------------------------------------
D|-----------------------------------------------------------
A|--------0--2--3--5--------------------0--5-----3--3--3--3--
E|--2--3--------------3--3--3--3--2--------------------------

Stave 6:

G|--------------------------------------------------------------------
D|--------------------------------------------------------------------
A|--5--5--5--5--------------------------------3-----2--0-----5--------
E|-----------------3--3--3--3--2--2--2--2--------------------------3--

							http://www.guitartabcreator.com
Chords

Instruments
{"strings":[[[".","_",".","_",".","_","_",".",".","_",".","_",".","_",".","_",".","_",".","_",".",".","_"],[".","_",".","_",".","_","_",".",".","_",".","_",".","_",".","_",".","_",".","_",".",".","_"],[".","_",".","_",3,"_","_",".",".","_",".","_",3,"_",".","_",".","_",".","_",3,".","_"],[3,"_",2,"_",".","_",2,".",3,"_",2,"_",".","_",2,"_",3,"_",2,"_",".",".",2]],[[".","_",".","_",".","_","_",".",".","_",".",".","_",".","_",".",".","_",".",".",".","_"],[".","_",".","_",".","_","_",".",".","_",".",".","_",".","_",".",".","_",".",".",".","_"],[".","_",".","_",3,"_","_",".",".","_",".",".","_",0,5,".",3,"_",2,0,".",5],[3,"_",2,"_",".","_",2,".",3,"_",3,2,"_",".","_",".",".","_",".",".",".","_"]],[[".",".",".",".",".",".",".","_",".",".",".",".","_",".",".","_",".","_",7],[".",".",".",".",".",".",".","_",".",".",2,".","_",".",2,"_",4,"_","."],[".",".",0,2,3,5,3,"_",3,5,".",5,"_",5,".","_",".","_","."],[2,3,".",".",".",".",".","_",".",".",".",".","_",".",".","_",".","_","."]],[["_","_","_","_","_","_","_","_",".","_",".",".","_",".",".",".","_",".",".","_","."],["_","_","_","_","_","_","_","_",".","_",".",".","_",".",".",".","_",".",".","_","."],["_","_","_","_","_","_","_","_",".","_",".",".","_",0,2,3,"_",2,0,"_",5],["_","_","_","_","_","_","_","_",3,"_",3,2,"_",".",".",".","_",".",".","_","."]],[[".",".",".",".",".",".",".",".",".",".",".","_",".",".","_",".",".",".","."],[".",".",".",".",".",".",".",".",".",".",".","_",".",".","_",".",".",".","."],[".",".",0,2,3,5,".",".",".",".",".","_",0,5,"_",3,3,3,3],[2,3,".",".",".",".",3,3,3,3,2,"_",".",".","_",".",".",".","."]],[[".",".",".",".","_",".",".",".",".",".",".",".",".","_",".","_",".",".","_",".","_","."],[".",".",".",".","_",".",".",".",".",".",".",".",".","_",".","_",".",".","_",".","_","."],[5,5,5,5,"_",".",".",".",".",".",".",".",".","_",3,"_",2,0,"_",5,"_","."],[".",".",".",".","_",3,3,3,3,2,2,2,2,"_",".","_",".",".","_",".","_",3]]],"numberofstrings":4,"notes":["G","D","A","E"],"capo":0,"stringnotes":["G2","D2","A1","E1"],"comments":["Lost in this world","Stave 2:","Stave 3:","Stave 4:","Stave 5:","Stave 6:"],"timing":[["W",null,"W",null,"W",null,"W",null,"W","W","W","W","W",null,"W",null,"W",null,"W",null,"W","W","W"],["W","W","W",null,"W",null,"W",null,"W",null,"W","W","W","W","W","W","W","W","W","W",null,"W","W"],["W","W","W","W","W","W","W",null,"W","W","W","W",null,"W","W",null,"W",null,"W"],["W","W",null,null,null,null,null,null,"W",null,"W","W",null,"W","W","W",null,"W","W",null,"W"],["W","W","W","W","W","W","W","W","W","W","W",null,"W","W",null,"W","W","W","W"],["W","W","W","W",null,"W","W","W","W","W","W","W","W",null,"W",null,"W","W",null,"W",null,"W"]],"timingvisible":false,"tabcounter":22,"stave":1,"totalstaves":6,"instrument":"4bass","selectedtuning":"4bass","version":"13"}

Member for

10 months 3 weeks
Submitted by Euromagnet on Fri, 2021-01-15 13:59