Amy Winehouse - You know i am no good

01234567891011121314151617181920212223
E
B
G
D
A
E
B
0 1 2 3 4 5 6 7 8 9 10 11 12 13 14 15 16 17 18 19 20 21 22 23
(/) Slide Up  (\) Slide Down  (h) Hammer On  (p) Pull Off  (b) Bend (r) Release (v) Vibrato

Stave 1:

G|-----------------------------------------------------------------------------
D|-----------------------------------------------------------------------------
A|--5-----------3--4--5-----------3--4--5-----------3--4--5-----------3--4--5--
E|--------5--5--------------5--5--------------5--5--------------5--5-----------

Stave 2:

G|-----------------------------------------------------------------------------------
D|--------3--4--5-----5--------5--6--7-----7-----------7-----------------------------
A|-----------------------5--5-----------------7--7--------4--5-----5--------3--4--5--
E|--5--5--------------------------------------------------------------5--5-----------

Stave 3:

G|--------------------------------------------------------------------------
D|--------3--4--5-----5--------5--6--7-----7-----------7--------------------
A|-----------------------5--5-----------------7--7--------4--5-----5--------
E|--5--5--------------------------------------------------------------5--5--

Stave 4:

G|--------------------------------------------------------------------------
D|--------------------------------------------------------------------------
A|--5-----------------------------7--7--7--7--7--7--7--8--8--8--8--8--8--8--
E|-----5--3--3--3--3--3--3--3--3--------------------------------------------

Stave 5:

G|--------------------------------------------------------------------------------
D|--------------------------------------------------5--6--7-----7--------7--------
A|--7--7--7--7-----------------3--4--5-----5-----------------------7--7-----5--7--
E|--------------5--5--5--5--------------------5--5--------------------------------

Stave 6:

G|--------------------------------------------------------------------------------------
D|--------------5--7-----7--------------------------------5--6--7-----7--------7--------
A|--7--------7--------------7--7-----3--4--5-----5-----------------------7--7-----5--7--
E|-----7--7-----------------------------------------5--5--------------------------------

Stave 7:

G|--------------------------------------------------------------------------------------------
D|--------------5--7-----7-----------------------------------------------3--4--5-----5--------
A|--7--------7--------------7--7-----------------------3--4--5--------------------------5--5--
E|-----7--7--------------------------------------------------------5--5-----------------------

Stave 8:

G|--------------------------------------------------------------------------------------------
D|--5--6--7-----7-----------7-----------------------------------3--4--5-----5--------5--6--7--
A|-----------------7--7--------4--5-----5--------3--4--5-----------------------5--5-----------
E|-----------------------------------------5--5-----------5--5--------------------------------

Stave 9:

G|-----------------------------------------------------------------------------------------
D|--7-----------7--------------------------------------------------------------------------
A|-----7--7--------4--5-----5-----------5-----------------------------7--7--7--7--7--7--7--
E|-----------------------------5--5--------5--3--3--3--3--3--3--3--3-----------------------

Stave 10:

G|--------------------------------------------------------------------------------------------
D|-----------------------------------------------------------------------5--6--7-----7--------
A|--8--8--8--8--8--8--8--7--7--7--7-----------------3--4--5-----5-----------------------7--7--
E|-----------------------------------5--5--5--5--------------------5--5-----------------------

Stave 11:

G|--------------------------------------------------------------------------------------------------
D|--7--------------------5--7-----7--------------------------------5--6--7-----7-----------7--------
A|-----5--7--7--------7--------------7--7-----3--4--5-----5-----------------------7--7--------5--7--
E|--------------7--7-----------------------------------------5--5-----------------------------------

Stave 12:

G|--------------------------------------------------------------------------------------------
D|-----------------5--7-----7-----------------------------7-----7--------------------5--6--7--
A|--7-----------7--------------7--7--------------------5-----5-----3--4--5--------------------
E|-----7--7--------------------------------------------------------------------5--5-----------

Stave 13:

G|--------------------------------------------------------------------------------------------------
D|-----7-----------7-----------------------5--7--------------------------------------------3--4--5--
A|--------7--7--------5--7-----7--------7-----------5-----------------3--4--5-----5-----------------
E|--------------------------------7--7-----------------------------------------------5--5-----------

Stave 14:

G|--------------------------------------------------------------------------------------------------------
D|--5--------5--6--7-----7--------7-----------------------------------------------------------------------
A|-----5--5-----------------7--7-----4--5-----5--------5-----------------------------7--7--7--7--7--7--7--
E|-----------------------------------------------5--5-----5--3--3--3--3--3--3--3--3-----------------------

Stave 15:

G|-----------------------------------------------------------------------------------------------------------
D|--------------------------------------------------------------------------5--6--7-----7-----------7--------
A|--8--8--8--8--8--8--8--8--7--7--7--7-----------------3--4--5-----5-----------------------7--7--------5--7--
E|--------------------------------------5--5--5--5--------------------5--5-----------------------------------

Stave 16:

G|-----------------------------------------------
D|-----------------5--7-----7--------------------
A|--7-----------7--------------7--7-----3--4--5--
E|-----7--7--------------------------------------

							http://www.guitartabcreator.com
Chords

Instruments
{"strings":[[[".","_",".",".",".",".",".","_",".",".",".",".",".","_",".",".",".",".",".","_",".",".",".",".","."],[".","_",".",".",".",".",".","_",".",".",".",".",".","_",".",".",".",".",".","_",".",".",".",".","."],[5,"_",".",".",3,4,5,"_",".",".",3,4,5,"_",".",".",3,4,5,"_",".",".",3,4,5],[".","_",5,5,".",".",".","_",5,5,".",".",".","_",5,5,".",".",".","_",5,5,".",".","."]],[[".",".",".",".",".","_",".",".",".",".",".",".","_",".",".",".","_",".",".",".","_",".",".",".",".",".","."],[".",".",3,4,5,"_",5,".",".",5,6,7,"_",7,".",".","_",7,".",".","_",".",".",".",".",".","."],[".",".",".",".",".","_",".",5,5,".",".",".","_",".",7,7,"_",".",4,5,"_",5,".",".",3,4,5],[5,5,".",".",".","_",".",".",".",".",".",".","_",".",".",".","_",".",".",".","_",".",5,5,".",".","."]],[[".",".",".",".",".","_",".",".",".",".",".",".","_",".",".",".","_",".",".",".","_",".",".","."],[".",".",3,4,5,"_",5,".",".",5,6,7,"_",7,".",".","_",7,".",".","_",".",".","."],[".",".",".",".",".","_",".",5,5,".",".",".","_",".",7,7,"_",".",4,5,"_",5,".","."],[5,5,".",".",".","_",".",".",".",".",".",".","_",".",".",".","_",".",".",".","_",".",5,5]],[[".",".",".",".",".",".",".",".",".",".",".",".",".",".",".",".",".",".",".",".",".",".",".","."],[".",".",".",".",".",".",".",".",".",".",".",".",".",".",".",".",".",".",".",".",".",".",".","."],[5,".",".",".",".",".",".",".",".",".",7,7,7,7,7,7,7,8,8,8,8,8,8,8],[".",5,3,3,3,3,3,3,3,3,".",".",".",".",".",".",".",".",".",".",".",".",".","."]],[[".",".",".",".",".",".",".",".","_",".",".",".","_",".",".",".",".",".",".","_",".",".",".",".",".","."],[".",".",".",".",".",".",".",".","_",".",".",".","_",".",".",".",5,6,7,"_",7,".",".",7,".","."],[7,7,7,7,".",".",".",".","_",3,4,5,"_",5,".",".",".",".",".","_",".",7,7,".",5,7],[".",".",".",".",5,5,5,5,"_",".",".",".","_",".",5,5,".",".",".","_",".",".",".",".",".","."]],[[".",".",".",".",".",".","_",".",".",".","_",".",".",".","_",".",".",".",".",".",".","_",".",".",".",".",".","."],[".",".",".",".",5,7,"_",7,".",".","_",".",".",".","_",".",".",".",5,6,7,"_",7,".",".",7,".","."],[7,".",".",7,".",".","_",".",7,7,"_",3,4,5,"_",5,".",".",".",".",".","_",".",7,7,".",5,7],[".",7,7,".",".",".","_",".",".",".","_",".",".",".","_",".",5,5,".",".",".","_",".",".",".",".",".","."]],[[".",".",".",".",".",".","_",".",".",".","_","_","_","_","_","_","_",".",".",".","_",".",".",".",".",".","_",".",".","."],[".",".",".",".",5,7,"_",7,".",".","_","_","_","_","_","_","_",".",".",".","_",".",".",3,4,5,"_",5,".","."],[7,".",".",7,".",".","_",".",7,7,"_","_","_","_","_","_","_",3,4,5,"_",".",".",".",".",".","_",".",5,5],[".",7,7,".",".",".","_",".",".",".","_","_","_","_","_","_","_",".",".",".","_",5,5,".",".",".","_",".",".","."]],[[".",".",".","_",".",".",".","_",".",".",".","_",".",".",".",".",".",".",".",".",".",".",".","_",".",".",".",".",".","."],[5,6,7,"_",7,".",".","_",7,".",".","_",".",".",".",".",".",".",".",".",3,4,5,"_",5,".",".",5,6,7],[".",".",".","_",".",7,7,"_",".",4,5,"_",5,".",".",3,4,5,".",".",".",".",".","_",".",5,5,".",".","."],[".",".",".","_",".",".",".","_",".",".",".","_",".",5,5,".",".",".",5,5,".",".",".","_",".",".",".",".",".","."]],[[".",".",".","_",".",".",".","_",".",".",".","_",".",".",".",".",".",".",".",".",".",".",".",".",".",".",".",".","."],[7,".",".","_",7,".",".","_",".",".",".","_",".",".",".",".",".",".",".",".",".",".",".",".",".",".",".",".","."],[".",7,7,"_",".",4,5,"_",5,".",".","_",5,".",".",".",".",".",".",".",".",".",7,7,7,7,7,7,7],[".",".",".","_",".",".",".","_",".",5,5,"_",".",5,3,3,3,3,3,3,3,3,".",".",".",".",".",".","."]],[[".",".",".",".",".",".",".",".",".",".",".",".",".",".",".","_",".",".",".","_",".",".",".",".",".",".","_",".",".","."],[".",".",".",".",".",".",".",".",".",".",".",".",".",".",".","_",".",".",".","_",".",".",".",5,6,7,"_",7,".","."],[8,8,8,8,8,8,8,7,7,7,7,".",".",".",".","_",3,4,5,"_",5,".",".",".",".",".","_",".",7,7],[".",".",".",".",".",".",".",".",".",".",".",5,5,5,5,"_",".",".",".","_",".",5,5,".",".",".","_",".",".","."]],[[".",".",".",".",".",".",".",".",".","_",".",".",".","_",".",".",".","_",".",".",".",".",".",".","_",".",".",".","_",".",".","."],[7,".",".",".",".",".",".",5,7,"_",7,".",".","_",".",".",".","_",".",".",".",5,6,7,"_",7,".",".","_",7,".","."],[".",5,7,7,".",".",7,".",".","_",".",7,7,"_",3,4,5,"_",5,".",".",".",".",".","_",".",7,7,"_",".",5,7],[".",".",".",".",7,7,".",".",".","_",".",".",".","_",".",".",".","_",".",5,5,".",".",".","_",".",".",".","_",".",".","."]],[[".",".",".","_",".",".",".","_",".",".",".","_","_","_","_","_","_",".",".",".",".",".",".",".","_",".",".",".",".","."],[".",".",".","_",".",5,7,"_",7,".",".","_","_","_","_","_","_",".",7,".",7,".",".",".","_",".",".",5,6,7],[7,".",".","_",7,".",".","_",".",7,7,"_","_","_","_","_","_",5,".",5,".",3,4,5,"_",".",".",".",".","."],[".",7,7,"_",".",".",".","_",".",".",".","_","_","_","_","_","_",".",".",".",".",".",".",".","_",5,5,".",".","."]],[["_",".",".",".","_",".",".",".","_",".",".",".",".",".",".","_",".","_","_","_","_","_",".",".",".","_",".",".",".",".",".","."],["_",7,".",".","_",7,".",".","_",".",".",".",".",5,7,"_",".","_","_","_","_","_",".",".",".","_",".",".",".",3,4,5],["_",".",7,7,"_",".",5,7,"_",7,".",".",7,".",".","_",5,"_","_","_","_","_",3,4,5,"_",5,".",".",".",".","."],["_",".",".",".","_",".",".",".","_",".",7,7,".",".",".","_",".","_","_","_","_","_",".",".",".","_",".",5,5,".",".","."]],[[".",".",".",".",".",".","_",".",".",".",".",".",".","_",".",".",".",".",".",".",".",".",".",".",".",".",".",".",".",".",".",".",".","."],[5,".",".",5,6,7,"_",7,".",".",7,".",".","_",".",".",".",".",".",".",".",".",".",".",".",".",".",".",".",".",".",".",".","."],[".",5,5,".",".",".","_",".",7,7,".",4,5,"_",5,".",".",5,".",".",".",".",".",".",".",".",".",7,7,7,7,7,7,7],[".",".",".",".",".",".","_",".",".",".",".",".",".","_",".",5,5,".",5,3,3,3,3,3,3,3,3,".",".",".",".",".",".","."]],[[".",".",".",".",".",".",".",".",".",".",".",".",".",".",".",".","_",".",".",".","_",".",".",".",".",".",".","_",".",".",".","_",".",".","."],[".",".",".",".",".",".",".",".",".",".",".",".",".",".",".",".","_",".",".",".","_",".",".",".",5,6,7,"_",7,".",".","_",7,".","."],[8,8,8,8,8,8,8,8,7,7,7,7,".",".",".",".","_",3,4,5,"_",5,".",".",".",".",".","_",".",7,7,"_",".",5,7],[".",".",".",".",".",".",".",".",".",".",".",".",5,5,5,5,"_",".",".",".","_",".",5,5,".",".",".","_",".",".",".","_",".",".","."]],[[".",".",".","_",".",".",".","_",".",".",".","_",".",".","."],[".",".",".","_",".",5,7,"_",7,".",".","_",".",".","."],[7,".",".","_",7,".",".","_",".",7,7,"_",3,4,5],[".",7,7,"_",".",".",".","_",".",".",".","_",".",".","."]]],"numberofstrings":4,"notes":["G","D","A","E"],"capo":0,"stringnotes":["G2","D2","A1","E1"],"comments":["Stave 1:","Stave 2:","Stave 3:","Stave 4:","Stave 5:","Stave 6:","Stave 7:","Stave 8:","Stave 9:","Stave 10:","Stave 11:","Stave 12:","Stave 13:","Stave 14:","Stave 15:","Stave 16:"],"timing":[["W",null,"W","W","W","W","W",null,"W","W","W","W","W",null,"W","W","W","W","W",null,"W","W","W","W","W"],["W","W","W","W","W",null,"W","W","W","W","W","W",null,"W","W","W",null,"W","W","W",null,"W","W","W","W","W","W"],["W","W","W","W","W",null,"W","W","W","W","W","W",null,"W","W","W",null,"W","W","W",null,"W","W","W"],["W","W","W","W","W","W","W","W","W","W","W","W","W","W","W","W","W","W","W","W","W","W","W","W"],["W","W","W","W","W","W","W","W",null,"W","W","W",null,"W","W","W","W","W","W",null,"W","W","W","W","W","W"],["W","W","W","W","W","W",null,"W","W","W",null,"W","W","W",null,"W","W","W","W","W","W",null,"W","W","W","W","W","W"],["W","W","W","W","W","W","W","W","W","W","W","W","W","W","W",null,"W","W","W","W","W","W","W","W","W","W","W","W","W","W"],["W","W","W",null,"W","W","W",null,"W","W","W",null,"W","W","W","W","W","W","W","W","W","W","W","W","W","W","W","W","W","W"],["W","W","W",null,"W","W","W",null,"W","W","W",null,"W","W","W","W","W","W","W","W","W","W","W","W","W","W","W","W","W"],["W","W","W","W","W","W","W","W","W","W","W","W","W","W","W",null,"W","W","W",null,"W","W","W","W","W","W",null,"W","W","W"],["W","W","W","W","W","W","W","W","W",null,"W","W","W","W","W","W","W",null,"W","W","W","W","W","W",null,"W","W","W",null,"W","W","W"],["W","W","W","W","W","W","W",null,"W","W","W",null,null,null,null,null,null,"W","W","W","W","W","W","W","W","W","W","W","W","W"],[null,"W","W","W",null,"W","W","W",null,"W","W","W","W","W","W",null,"W",null,null,null,null,null,"W","W","W",null,"W","W","W","W","W","W"],["W","W","W","W","W","W",null,"W","W","W","W","W","W","W","W","W","W","W","W","W","W","W","W","W","W","W","W","W","W","W","W","W","W","W"],["W","W","W","W","W","W","W","W","W","W","W","W","W","W","W","W",null,"W","W","W",null,"W","W","W","W","W","W",null,"W","W","W",null,"W","W","W"],["W","W","W",null,"W","W","W",null,"W","W","W",null,"W","W","W"]],"timingvisible":false,"tabcounter":15,"stave":15,"totalstaves":16,"instrument":"4bass","selectedtuning":"4bass","version":"13"}

Member for

10 months 3 weeks
Submitted by Euromagnet on Mon, 2021-03-08 11:15