Sound will begin in 5 seconds

Molli -ja duuri arpeggioita

01234567891011121314151617181920212223
E
B
G
D
A
E
B
0 1 2 3 4 5 6 7 8 9 10 11 12 13 14 15 16 17 18 19 20 21 22 23
(/) Slide Up  (\) Slide Down  (h) Hammer On  (p) Pull Off  (b) Bend (r) Release (v) Vibrato

A molli - arpeggio:

E|-----------5--5h8p5-------|-----------5--8h5-------|--
B|--------------------------|------------------------|--
G|-----5--9------------9p5--|-----5--9----------9h5--|--
D|--7-----------------------|--7---------------------|--
A|--------------------------|------------------------|--
E|--------------------------|------------------------|--

C-duuri arpeggio:

E|-------------8--8h12p8--------|-------------8--12p8--------|--
B|------------------------------|----------------------------|--
G|------9--12-------------12p9--|------9--12-----------12p9--|--
D|--10--------------------------|--10------------------------|--
A|------------------------------|----------------------------|--
E|------------------------------|----------------------------|--

E molli - arpeggio:

E|--------------12--12h15p12---------|--------------12--15p12---------|--
B|-----------------------------------|--------------------------------|--
G|------12--16----------------16p12--|------12--16-------------16p12--|--
D|--14-------------------------------|--14----------------------------|--
A|-----------------------------------|--------------------------------|--
E|-----------------------------------|--------------------------------|--

G duuri - arpeggio:

E|--------------15--15h19p15---------|--------------15--19p15---------|--
B|-----------------------------------|--------------------------------|--
G|------16--19----------------19p16--|------16--19-------------19p16--|--
D|--17-------------------------------|--17----------------------------|--
A|-----------------------------------|--------------------------------|--
E|-----------------------------------|--------------------------------|--

Stave 5:

E|--
B|--
G|--
D|--
A|--
E|--

http://www.guitartabcreator.com
Guitar Tab Creator is intended to store guitar tab created through the tool. It currently does not support in-line text editing. Any text you place in here will be lost. If you need to comment on your tab, please use the "Tab Notes" section located below.