Sound will begin in 5 seconds

Miracle Man - economy picking - kohta soolossa

01234567891011121314151617181920212223
E
B
G
D
A
E
B
0 1 2 3 4 5 6 7 8 9 10 11 12 13 14 15 16 17 18 19 20 21 22 23
(/) Slide Up  (\) Slide Down  (h) Hammer On  (p) Pull Off  (b) Bend (r) Release (v) Vibrato

Economy picking:

E|------9--14------9--14------9--14------9--14------9--14------|--
B|--12---------12---------12---------12---------12---------12--|--
G|-------------------------------------------------------------|--
D|-------------------------------------------------------------|--
A|-------------------------------------------------------------|--
E|-------------------------------------------------------------|--

Economy picking:

E|------12--16------12--16------12--16------12--16------12--16------|--
B|--14----------14----------14----------14----------14----------14--|--
G|------------------------------------------------------------------|--
D|------------------------------------------------------------------|--
A|------------------------------------------------------------------|--
E|------------------------------------------------------------------|--

Economy picking:

E|------14--17------14--17------14--17------14--17------14--17------|--
B|--15----------15----------15----------15----------15----------15--|--
G|------------------------------------------------------------------|--
D|------------------------------------------------------------------|--
A|------------------------------------------------------------------|--
E|------------------------------------------------------------------|--

Alternate picking:

E|--19--14----------17--14----------19--14----------17--14----------19--14------17--14---------------|--
B|----------17--14----------17--14----------17--14----------17--14----------14----------17--14-------|--
G|----------------------------------------------------------------------------------------------16v--|--
D|---------------------------------------------------------------------------------------------------|--
A|---------------------------------------------------------------------------------------------------|--
E|---------------------------------------------------------------------------------------------------|--

http://www.guitartabcreator.com
Guitar Tab Creator is intended to store guitar tab created through the tool. It currently does not support in-line text editing. Any text you place in here will be lost. If you need to comment on your tab, please use the "Tab Notes" section located below.