paint it black

Chords

01234567891011121314151617181920212223
E
B
G
D
A
E
B
0 1 2 3 4 5 6 7 8 9 10 11 12 13 14 15 16 17 18 19 20 21 22 23
(/) Slide Up  (\) Slide Down  (h) Hammer On  (p) Pull Off  (b) Bend (r) Release (v) Vibrato

Stave 1:

E|--0--0--0--0---0--0--0--0--0--0--0--0--0--
B|--5--7--8--10--8--7--5--5--4--5--7--5--4--
G|------------------------------------------
D|------------------------------------------
A|------------------------------------------
E|------------------------------------------

Stave 2:

E|--0--0--0--0---0--0--0--0--0--0--0--0--|--0--0--0--0---0--0--0--0--0--0--0--0--
B|--5--7--8--10--8--7--5--5--4--5--7--5--|--5--7--8--10--8--7--5--5--4--5--7--5--
G|---------------------------------------|---------------------------------------
D|---------------------------------------|---------------------------------------
A|---------------------------------------|---------------------------------------
E|---------------------------------------|---------------------------------------

Stave 3:

E|--0--0--2--2--|--3--3--2--2--|--0--0--0--0--|--0--0--0--0--
B|--0--0--3--3--|--0--0--3--3--|--0--0--0--0--|--0--0--0--0--
G|--0--0--2--2--|--0--0--2--2--|--0--0--0--0--|--0--0--0--0--
D|--2--2--0--0--|--0--0--0--0--|--2--2--2--2--|--2--2--2--2--
A|--2--2--------|--2--2--------|--2--2--2--2--|--2--2--2--2--
E|--0--0--------|--3--3--------|--0--0--0--0--|--0--0--0--0--

Stave 4:

E|--0--0--2--2--|--3--3--2--2--|--0--0--0--0--|--------------
B|--0--0--3--3--|--0--0--3--3--|--2--2--2--2--|--4--4--4--4--
G|--0--0--2--2--|--0--0--2--2--|--2--2--2--2--|--4--4--4--4--
D|--2--2--0--0--|--0--0--0--0--|--2--2--2--2--|--4--4--4--4--
A|--2--2--------|--2--2--------|--0--0--0--0--|--------------
E|--0--0--------|--3--3--------|--------------|--------------

							http://www.guitartabcreator.com
Instruments
{"strings":[[[0,0,0,0,0,0,0,0,0,0,0,0,0],[5,7,8,10,8,7,5,5,4,5,7,5,4],[".",".",".",".",".",".",".",".",".",".",".",".","."],[".",".",".",".",".",".",".",".",".",".",".",".","."],[".",".",".",".",".",".",".",".",".",".",".",".","."],[".",".",".",".",".",".",".",".",".",".",".",".","."]],[[0,0,0,0,0,0,0,0,0,0,0,0,"|",0,0,0,0,0,0,0,0,0,0,0,0],[5,7,8,10,8,7,5,5,4,5,7,5,"|",5,7,8,10,8,7,5,5,4,5,7,5],[".",".",".",".",".",".",".",".",".",".",".",".","|",".",".",".",".",".",".",".",".",".",".",".","."],[".",".",".",".",".",".",".",".",".",".",".",".","|",".",".",".",".",".",".",".",".",".",".",".","."],[".",".",".",".",".",".",".",".",".",".",".",".","|",".",".",".",".",".",".",".",".",".",".",".","."],[".",".",".",".",".",".",".",".",".",".",".",".","|",".",".",".",".",".",".",".",".",".",".",".","."]],[[0,0,2,2,"|",3,3,2,2,"|",0,0,0,0,"|",0,0,0,0],[0,0,3,3,"|",0,0,3,3,"|",0,0,0,0,"|",0,0,0,0],[0,0,2,2,"|",0,0,2,2,"|",0,0,0,0,"|",0,0,0,0],[2,2,0,0,"|",0,0,0,0,"|",2,2,2,2,"|",2,2,2,2],[2,2,".",".","|",2,2,".",".","|",2,2,2,2,"|",2,2,2,2],[0,0,".",".","|",3,3,".",".","|",0,0,0,0,"|",0,0,0,0]],[[0,0,2,2,"|",3,3,2,2,"|",0,0,0,0,"|",".",".",".","."],[0,0,3,3,"|",0,0,3,3,"|",2,2,2,2,"|",4,4,4,4],[0,0,2,2,"|",0,0,2,2,"|",2,2,2,2,"|",4,4,4,4],[2,2,0,0,"|",0,0,0,0,"|",2,2,2,2,"|",4,4,4,4],[2,2,".",".","|",2,2,".",".","|",0,0,0,0,"|",".",".",".","."],[0,0,".",".","|",3,3,".",".","|",".",".",".",".","|",".",".",".","."]]],"numberofstrings":6,"notes":["E","B","G","D","A","E","B"],"capo":0,"stringnotes":["E4","B3","G3","D3","A2","E2"],"comments":["Stave 1:","Stave 2:","Stave 3:","Stave 4:"],"timing":[[null,"W","W","W","W","W","W","W","W","W","W","W","W","W"],[null,"W","W","W","W","W","W","W","W","W","W","W","W",null,"W","W","W","W","W","W","W","W","W","W","W","W"],[null,"W","W","W","W",null,"W","W","W","W",null,"W","W","W","W",null,"W","W","W","W"],[null,"W","W","W","W","W","W","W","W","W",null,"W","W","W","W",null,"W","W","W","W"]],"timingvisible":false,"tabcounter":19,"stave":3,"totalstaves":4,"instrument":"6guitar","selectedtuning":"6_standard","version":"13"}

Member for

1 month 2 weeks
Submitted by etan on Tue, 2020-06-02 18:10