Clair de Lune - C. Debussy

Chords

01234567891011121314151617181920212223
E
B
G
D
A
E
B
0 1 2 3 4 5 6 7 8 9 10 11 12 13 14 15 16 17 18 19 20 21 22 23
(/) Slide Up  (\) Slide Down  (h) Hammer On  (p) Pull Off  (b) Bend (r) Release (v) Vibrato

Stave 1:

E|--3--0--------------------------------------------------------------------------------------------------------------------
B|-----------3--5--3-----1--3--1-----0--1--0--------------3-----------------------------------------------------------------
G|-----------------------------------------------2--4--2-----0--2--0-----------------------------2--------------------------
D|-----------------------------------------------------------------------3--5--3--2-----2--3--2-----0--2--0-----------------
A|--------------------------------------------------------------------------------------------------------------3--5--3--2--
E|--------------------------------------------------------------------------------------------------------------------------

Stave 2:

E|--3--0-----------------------------------------------5--3--3--0-----0--------------0--0-----------------------------1--0--
B|-----------3--5--3-----1--3--1-----3--5--3--------3--------------3-----3--1--------------3--3--1--1--0--0--1--------------
G|-----------------------------------------------5-----------------------------2--------------------------------2-----------
D|--------------------------------------------------------------------------------------------------------------------------
A|--------------------------------------------------------------------------------------------------------------------------
E|--------------------------------------------------------------------------------------------------------------------------

Stave 3:

E|--------0--------------------------------------------------------------------------------------------------------------------
B|--3--3-----3--1--0--1--------------0-----3-----------------------------1-----3-----0--0--0--2--0-----------3--1-----0--1--3--
G|-----------------------2--------0-----2-----------------0-----------0-----2-----------------------------0--------2-----------
D|-----------------------------3-----------------3--3--3-----3-----3-----------------------------------3-----------------------
A|-----------------------------------------------------------------------------------------------------------------------------
E|-----------------------------------------------------------------------------------------------------------------------------

Stave 4:

E|--3-----3--3--1--0--1-----1--1--3--0-----
B|-----------------------------------------
G|-----------------------------------------
D|-----------------------------------------
A|-----------------------------------------
E|-----------------------------------------

							http://www.guitartabcreator.com
Instruments
{"strings":[[[3,0,"_",".",".",".","_",".",".",".","_",".",".",".","_",".",".",".",".",".",".",".","_",".",".",".",".","_",".",".",".",".",".",".",".","_",".",".",".","."],[".",".","_",3,5,3,"_",1,3,1,"_",0,1,0,"_",".",".",".",3,".",".",".","_",".",".",".",".","_",".",".",".",".",".",".",".","_",".",".",".","."],[".",".","_",".",".",".","_",".",".",".","_",".",".",".","_",2,4,2,".",0,2,0,"_",".",".",".",".","_",".",".",".",2,".",".",".","_",".",".",".","."],[".",".","_",".",".",".","_",".",".",".","_",".",".",".","_",".",".",".",".",".",".",".","_",3,5,3,2,"_",2,3,2,".",0,2,0,"_",".",".",".","."],[".",".","_",".",".",".","_",".",".",".","_",".",".",".","_",".",".",".",".",".",".",".","_",".",".",".",".","_",".",".",".",".",".",".",".","_",3,5,3,2],[".",".","_",".",".",".","_",".",".",".","_",".",".",".","_",".",".",".",".",".",".",".","_",".",".",".",".","_",".",".",".",".",".",".",".","_",".",".",".","."]],[[3,0,"_",".",".",".","_",".",".",".","_",".",".",".","_",".",".",5,3,3,0,".",0,".",".",".","_",0,0,".",".",".",".",".",".",".",".","_",1,0],[".",".","_",3,5,3,"_",1,3,1,"_",3,5,3,"_",".",3,".",".",".",".",3,".",3,1,".","_",".",".",3,3,1,1,0,0,1,".","_",".","."],[".",".","_",".",".",".","_",".",".",".","_",".",".",".","_",5,".",".",".",".",".",".",".",".",".",2,"_",".",".",".",".",".",".",".",".",".",2,"_",".","."],[".",".","_",".",".",".","_",".",".",".","_",".",".",".","_",".",".",".",".",".",".",".",".",".",".",".","_",".",".",".",".",".",".",".",".",".",".","_",".","."],[".",".","_",".",".",".","_",".",".",".","_",".",".",".","_",".",".",".",".",".",".",".",".",".",".",".","_",".",".",".",".",".",".",".",".",".",".","_",".","."],[".",".","_",".",".",".","_",".",".",".","_",".",".",".","_",".",".",".",".",".",".",".",".",".",".",".","_",".",".",".",".",".",".",".",".",".",".","_",".","."]],[[".",".",0,".",".",".",".",".","_",".",".",".",".",".","_",".",".",".",".",".","_",".",".",".",".",".","_",".",".",".",".",".","_",".",".",".",".",".",".",".","."],[3,3,".",3,1,0,1,".","_",".",".",0,".",3,"_",".",".",".",".",".","_",".",".",1,".",3,"_",0,0,0,2,0,"_",".",".",3,1,".",0,1,3],[".",".",".",".",".",".",".",2,"_",".",0,".",2,".","_",".",".",".",0,".","_",".",0,".",2,".","_",".",".",".",".",".","_",".",0,".",".",2,".",".","."],[".",".",".",".",".",".",".",".","_",3,".",".",".",".","_",3,3,3,".",3,"_",3,".",".",".",".","_",".",".",".",".",".","_",3,".",".",".",".",".",".","."],[".",".",".",".",".",".",".",".","_",".",".",".",".",".","_",".",".",".",".",".","_",".",".",".",".",".","_",".",".",".",".",".","_",".",".",".",".",".",".",".","."],[".",".",".",".",".",".",".",".","_",".",".",".",".",".","_",".",".",".",".",".","_",".",".",".",".",".","_",".",".",".",".",".","_",".",".",".",".",".",".",".","."]],[[3,"_",3,3,1,0,1,"_",1,1,3,0,"_"],[".","_",".",".",".",".",".","_",".",".",".",".","_"],[".","_",".",".",".",".",".","_",".",".",".",".","_"],[".","_",".",".",".",".",".","_",".",".",".",".","_"],[".","_",".",".",".",".",".","_",".",".",".",".","_"],[".","_",".",".",".",".",".","_",".",".",".",".","_"]]],"numberofstrings":6,"notes":["E","B","G","D","A","E","B"],"capo":0,"stringnotes":["E4","B3","G3","D3","A2","E2"],"comments":["Stave 1:","Stave 2:","Stave 3:","Stave 4:"],"timing":[["W","W",null,"W","W","W",null,"W","W","W",null,"W","W","W",null,"W","W","W","W","W","W","W",null,"W","W","W","W",null,"W","W","W","W","W","W","W",null,"W","W","W","W"],["W","W",null,"W","W","W","W","W","W","W",null,"W","W","W",null,"W","W","W","W","W","W","W","W","W","W","W",null,"W","W","W","W","W","W","W","W","W","W",null,"W","W"],["W","W","W","W","W","W","W","W",null,"W","W","W","W","W",null,"W","W","W","W","W",null,"W","W","W","W","W","W","W","W","W","W","W",null,"W","W","W","W","W","W","W","W"],["W",null,"W","W","W","W","W",null,"W","W","W","W"]],"timingvisible":false,"tabcounter":13,"stave":3,"totalstaves":4,"instrument":"6guitar","selectedtuning":"6_standard","version":"13"}

Member for

49 minutes 40 seconds
About Me
Love for guitars
Submitted by Eskeptisism on Thu, 2020-07-30 18:27