Venice Bitch

Chords

01234567891011121314151617181920212223
E
B
G
D
A
E
B
0 1 2 3 4 5 6 7 8 9 10 11 12 13 14 15 16 17 18 19 20 21 22 23
(/) Slide Up  (\) Slide Down  (h) Hammer On  (p) Pull Off  (b) Bend (r) Release (v) Vibrato

Stave 1: intro/verse

E|-----------------------------------------------------------
B|--0--1-----------0--1--------0-----0--------0--------------
G|--------2--------------2--------0--------0-----0-----------
D|--3--3-----3-----3--3-----3--------------------------------
A|-----------------------------------------------------------
E|-----------------------------3--------3--------------------

Stave 2: pre-chorus

E|--------------1-----------------------3-----------
B|--------0-----1-----1-----------1-----0--0--------
G|--------0-----2--2-----2--------2-----0-----0-----
D|-----2-----2--3--------------2-----2--0--------0--
A|--------------------------0-----------2-----------
E|--0-----------------------------------3-----------

Stave 3: chorus

E|-----------------------------------------------------------------------------------------------------
B|--------------1-----------------------1-----------------------1--------------------------1-----------
G|--------0-----------0-----------3--------3--------------2-----------2--------------1--------1--------
D|-----2-----2-----2-----2-----2-----2--------2--------3-----3-----3-----3--------3-----3--------3-----
A|--3-----------------------3--------------------3--3-----------------------3--3--------------------3--
E|-----------------------------------------------------------------------------------------------------

							http://www.guitartabcreator.com
Instruments
{"strings":[[[".",".",".",".","_",".",".",".",".",".",".",".",".",".",".","_","_","_","_"],[0,1,".",".","_",0,1,".",".",0,".",0,".",".",0,"_","_","_","_"],[".",".",2,".","_",".",".",2,".",".",0,".",".",0,".",0,"_","_","_"],[3,3,".",3,"_",3,3,".",3,".",".",".",".",".",".","_","_","_","_"],[".",".",".",".","_",".",".",".",".",".",".",".",".",".",".","_","_","_","_"],[".",".",".",".","_",".",".",".",".",3,".",".",3,".",".","_","_","_","_"]],[[".",".",".",".",1,".",".",".",".",".",".",".",3,".",".","."],[".",".",0,".",1,".",1,".",".",".",1,".",0,0,".","."],[".",".",0,".",2,2,".",2,".",".",2,".",0,".",0,"."],[".",2,".",2,3,".",".",".",".",2,".",2,0,".",".",0],[".",".",".",".",".",".",".",".",0,".",".",".",2,".",".","."],[0,".",".",".",".",".",".",".",".",".",".",".",3,".",".","."]],[[".",".",".",".",".",".",".",".",".",".",".",".",".",".",".",".",".",".",".",".",".",".",".",".",".",".",".",".",".",".",".",".","."],[".",".",".",".",1,".",".",".",".",".",".",".",1,".",".",".",".",".",".",".",1,".",".",".",".",".",".",".",".",1,".",".","."],[".",".",0,".",".",".",0,".",".",".",3,".",".",3,".",".",".",".",2,".",".",".",2,".",".",".",".",1,".",".",1,".","."],[".",2,".",2,".",2,".",2,".",2,".",2,".",".",2,".",".",3,".",3,".",3,".",3,".",".",3,".",3,".",".",3,"."],[3,".",".",".",".",".",".",".",3,".",".",".",".",".",".",3,3,".",".",".",".",".",".",".",3,3,".",".",".",".",".",".",3],[".",".",".",".",".",".",".",".",".",".",".",".",".",".",".",".",".",".",".",".",".",".",".",".",".",".",".",".",".",".",".",".","."]]],"numberofstrings":6,"notes":["E","B","G","D","A","E","B"],"capo":0,"stringnotes":["E4","B3","G3","D3","A2","E2"],"comments":["Stave 1: intro/verse","Stave 2: pre-chorus","Stave 3: chorus"],"timing":[[null,null,null,null,null,null,null,null,null,null,null,null,null,null,null,null,null,null,null,null,null,null,null,null,null,null,null,null,null,null,null,"W"],[null,null,null,null,null,null,null,null,null,null,"W","W","W","W","W","W"],["W","W","W","W","W","W","W","W","W","W","W","W","W","W","W","W","W","W","W","W","W","W","W","W","W","W","W","W","W","W","W","W","W"]],"timingvisible":false,"tabcounter":31,"stave":0,"totalstaves":3,"instrument":"6guitar","selectedtuning":"6_standard","version":"13"}

Member for

1 week
Submitted by esingleton on Tue, 2020-06-30 13:31