Sound will begin in 5 seconds

El Mayor De Los Villares - Ariel Camacho(Requinto)

Chords
01234567891011121314151617181920212223
E
B
G
D
A
E
B
0 1 2 3 4 5 6 7 8 9 10 11 12 13 14 15 16 17 18 19 20 21 22 23
Song Science #1: How Pros Use 6 Chords to Write Hit Songs
(/) Slide Up  (\) Slide Down  (h) Hammer On  (p) Pull Off  (b) Bend (r) Release (v) Vibrato

Stave 1:

E|-----------------------
B|-----------------------
G|--6--6--6--4--4-----4--
D|-----------------6-----
A|-----------------------
E|-----------------------

Stave 2:

E|--4--4--4--2--4--2-----2--4-----2--0--
B|--5--5--5--4--5--4-----4--5-----4--2--
G|--------------------------------------
D|--------------------------------------
A|--------------------------------------
E|--------------------------------------

Stave 3:

E|--12--12--12--11--11--9------9---12-----11--9---
B|--14--14--14--12--12--10-----10--14-----12--10--
G|------------------------------------------------
D|------------------------------------------------
A|------------------------------------------------
E|------------------------------------------------

Stave 4:

E|--16--16--16--14--14--12-----12--14-----12--11--
B|--17--17--17--16--16--14-----14--16-----14--12--
G|------------------------------------------------
D|------------------------------------------------
A|------------------------------------------------
E|------------------------------------------------

Stave 5:

E|-----------
B|-----------
G|-----------
D|-----------
A|-----4--6--
E|--7--------

http://www.guitartabcreator.com
Guitar Tab Creator is intended to store guitar tab created through the tool. It currently does not support in-line text editing. Any text you place in here will be lost. If you need to comment on your tab, please use the "Tab Notes" section located below.