Sound will begin in 5 seconds

Trying out this free Tab Maker

Chords
01234567891011121314151617181920212223
E
B
G
D
A
E
B
0 1 2 3 4 5 6 7 8 9 10 11 12 13 14 15 16 17 18 19 20 21 22 23
Song Science #1: How Pros Use 6 Chords to Write Hit Songs
(/) Slide Up  (\) Slide Down  (h) Hammer On  (p) Pull Off  (b) Bend (r) Release (v) Vibrato

Stave 1:

E|------------|--5--------0-----7--|--5\4--0--------------|------------|--5--------0-----7--|--
B|--5/7--7/9--|-----9--------7-----|----------------------|--5/7--7/9--|-----9--------7-----|--
G|------------|--------9-----6-----|----------------4--2--|------------|--------9-----6-----|--
D|------------|--------------7-----|----------------------|------------|--------------7-----|--
A|------------|--------------0-----|-------------------0--|------------|--------------0-----|--
E|-------0----|--------------------|-------5--------------|-------0----|--------------------|--

Stave 2:

E|--4--7/9-----7--|-----
B|----------------|--7--
G|----------------|--6--
D|----------------|--7--
A|----------------|--0--
E|-------5--------|-----

Stave 3:

E|--5\4--|--2--------
B|-------|--4--------
G|-------|--0--------
D|-------|-----------
A|-------|--0--------
E|-------|-----------

http://www.guitartabcreator.com
Guitar Tab Creator is intended to store guitar tab created through the tool. It currently does not support in-line text editing. Any text you place in here will be lost. If you need to comment on your tab, please use the "Tab Notes" section located below.