Just A Song Before I Go

Chords

01234567891011121314151617181920212223
E
B
G
D
A
E
B
0 1 2 3 4 5 6 7 8 9 10 11 12 13 14 15 16 17 18 19 20 21 22 23
(/) Slide Up  (\) Slide Down  (h) Hammer On  (p) Pull Off  (b) Bend (r) Release (v) Vibrato

E|------------------------------------------------------------------
B|------------------------------------------------------------------
G|-----------------2--2------4--2--0--0-----0-----------------------
D|--------0--2--4------------------------2-----2--2--0--2--0--0--2--
A|--0--2------------------------------------------------------------
E|------------------------------------------------------------------



E|----------------------------------------------------------------
B|-------------------------------3--5--3--5--3--3--5--5--5--3--5--
G|--------0---------2--4--2---------------------------------------
D|--0--2-----2----------------------------------------------------
A|----------------------------------------------------------------
E|----------------------------------------------------------------



E|----------------------------------------|--|--
B|----------------------------------------|--|--
G|--2--4--2--0----------0-----2--0--------|--|--
D|--------------2----2-----2--------2--2--|--|--
A|----------------------------------------|--|--
E|----------------------------------------|--|--



E|------------------------------------------------------------------5--3--0--0-----0--
B|--------------------0-----------------------0-----------3/5--5----------------3-----
G|--------0-----0--2------------------0--2/4---------2/4------------------------------
D|--0--2-----2---------------0--2--4--------------------------------------------------
A|------------------------------------------------------------------------------------
E|------------------------------------------------------------------------------------



E|--------------------------------------------------------
B|--3--0--------------------------------------------------
G|--------2--0------------2/4--4--3--2--4--3--2--0--------
D|--------------2--0--------------------------------2--2--
A|--------------------------------------------------------
E|--------------------------------------------------------



E|-----------------------------------------------
B|-----------------------------------------------
G|--------0--2--4--2--0-----0--2--0--------------
D|--0--2-----------------2-----------2--0--0--2--
A|-----------------------------------------------
E|-----------------------------------------------



E|--
B|--
G|--
D|--
A|--
E|--
							http://www.guitartabcreator.com
[[],[],[],[],[],[]]

Member for

8 years 8 months
Submitted by eruby on Tue, 2012-01-10 21:25