sd5

01234567891011121314151617181920212223
E
B
G
D
A
E
B
0 1 2 3 4 5 6 7 8 9 10 11 12 13 14 15 16 17 18 19 20 21 22 23
(/) Slide Up  (\) Slide Down  (h) Hammer On  (p) Pull Off  (b) Bend (r) Release (v) Vibrato

Stave 1:

E|--------------------------|--------------------------|--------------------------|--
B|---------8--12--8---------|---------8--11--8---------|---------8--11--8---------|--
G|------9------------9------|------9------------9------|------8------------8------|--
D|--10------------------10--|--10------------------10--|--10------------------10--|--
A|--------------------------|--------------------------|--------------------------|--
E|--------------------------|--------------------------|--------------------------|--

Stave 2:

E|--------------------------|--------------------------|--
B|---------8--10--8---------|---------8--10--8---------|--
G|------9------------9------|------8------------8------|--
D|--10------------------10--|--10------------------10--|--
A|--------------------------|--------------------------|--
E|--------------------------|--------------------------|--

							http://www.guitartabcreator.com
Chords

Instruments
{"strings":[[[".",".",".",".",".",".",".","|",".",".",".",".",".",".",".","|",".",".",".",".",".",".",".","|"],[".",".",8,12,8,".",".","|",".",".",8,11,8,".",".","|",".",".",8,11,8,".",".","|"],[".",9,".",".",".",9,".","|",".",9,".",".",".",9,".","|",".",8,".",".",".",8,".","|"],[10,".",".",".",".",".",10,"|",10,".",".",".",".",".",10,"|",10,".",".",".",".",".",10,"|"],[".",".",".",".",".",".",".","|",".",".",".",".",".",".",".","|",".",".",".",".",".",".",".","|"],[".",".",".",".",".",".",".","|",".",".",".",".",".",".",".","|",".",".",".",".",".",".",".","|"]],[[".",".",".",".",".",".",".","|",".",".",".",".",".",".",".","|"],[".",".",8,10,8,".",".","|",".",".",8,10,8,".",".","|"],[".",9,".",".",".",9,".","|",".",8,".",".",".",8,".","|"],[10,".",".",".",".",".",10,"|",10,".",".",".",".",".",10,"|"],[".",".",".",".",".",".",".","|",".",".",".",".",".",".",".","|"],[".",".",".",".",".",".",".","|",".",".",".",".",".",".",".","|"]]],"numberofstrings":6,"notes":["E","B","G","D","A","E","B"],"capo":0,"stringnotes":["E4","B3","G3","D3","A2","E2"],"comments":["Stave 1:","Stave 2:"],"timing":[["W","W","W","W","W","W","W",null,"W","W","W","W","W","W","W",null,"W","W","W","W","W","W","W"],["W","W","W","W","W","W","W",null,"W","W","W","W","W","W","W"]],"timingvisible":false,"tabcounter":16,"stave":1,"totalstaves":2,"instrument":"6guitar","selectedtuning":"6_standard","version":"13"}

Member for

1 month
Submitted by ernie on Fri, 2021-06-04 22:44