Sound will begin in 5 seconds

Solo E Major

01234567891011121314151617181920212223
E
B
G
D
A
E
B
0 1 2 3 4 5 6 7 8 9 10 11 12 13 14 15 16 17 18 19 20 21 22 23
Song Science #1: How Pros Use 6 Chords to Write Hit Songs
(/) Slide Up  (\) Slide Down  (h) Hammer On  (p) Pull Off  (b) Bend (r) Release (v) Vibrato

Stave 1:

E|----------------------------------------------------------------------------------------------------------7--9--11--7--9--11--
B|------------------------------------------------------------------------------------9--10--12--9--10--12----------------------
G|----------------------------------------------------------------8--9--11--8--9--11--------------------------------------------
D|--------------------------------------------7--9--11--7--9--11----------------------------------------------------------------
A|------------------------7--9--11--7--9--11------------------------------------------------------------------------------------
E|--9--11--12--9--11--12--------------------------------------------------------------------------------------------------------

Stave 2:

E|--9--11--12--9--11--12--11--12--14--11--12--14--12--14--16--12--14--16----------------------
B|------------------------------------------------------------------------14------------------
G|----------------------------------------------------------------------------16--13--14--16--
D|--------------------------------------------------------------------------------------------
A|--------------------------------------------------------------------------------------------
E|--------------------------------------------------------------------------------------------

Stave 3:

E|--------------------------------------------------------------------------14--16--17--14--16--17--12--14--16--12--14--16--
B|--------------------------------------------------12--14--16--12--14--16--------------------------------------------------
G|--11--13--14--11--13--14--13--14--16--13--14--16--------------------------------------------------------------------------
D|--------------------------------------------------------------------------------------------------------------------------
A|--------------------------------------------------------------------------------------------------------------------------
E|--------------------------------------------------------------------------------------------------------------------------

Stave 4:

E|--------------17--14--------------------------------------------------------------------9--7--9--11--12--9--11--14--12--11--
B|--14------14-------------------------------------------------------------10--9--10--12--------------------------------------
G|------16--------------------9--8----------------------------9--8--9--11-----------------------------------------------------
D|----------------------------------9------9--11--7-----7--9------------------------------------------------------------------
A|-------------------------------------11-------------------------------------------------------------------------------------
E|----------------------------------------------------------------------------------------------------------------------------

Stave 5:

E|--12--11--9-----------------------------7--9--11b
B|-------------10----------------------9-----------
G|-----------------9----------------8--------------
D|--------------------11---------9-----------------
A|------------------------7--11--------------------
E|-------------------------------------------------

http://www.guitartabcreator.com
Guitar Tab Creator is intended to store guitar tab created through the tool. It currently does not support in-line text editing. Any text you place in here will be lost. If you need to comment on your tab, please use the "Tab Notes" section located below.