Sound will begin in 5 seconds

lahendus on kaos kitarr

Chords
01234567891011121314151617181920212223
E
B
G
D
A
E
B
0 1 2 3 4 5 6 7 8 9 10 11 12 13 14 15 16 17 18 19 20 21 22 23
Song Science #1: How Pros Use 6 Chords to Write Hit Songs
(/) Slide Up  (\) Slide Down  (h) Hammer On  (p) Pull Off  (b) Bend (r) Release (v) Vibrato

Stave 1:

E|------------------------------------------------------------------------
B|--5--5--8--7--8--7--8--7--7--8--7--7------5--5--8--7--8--7--8--7--8--7--
G|------------------------------------------------------------------------
D|------------------------------------------------------------------------
A|------------------------------------------------------------------------
E|------------------------------------------------------------------------

Stave 2:

E|------------------------------------------------
B|------------------------------------------------
G|--------4--6--7---------------------------------
D|--4--4-------------4--4--4--4----4--4--4--4--4--
A|-------------------4--4--4--4----4--4--4--4--4--
E|-------------------2--2--2--2----2--2--2--2--2--

Stave 3:

E|------------------------------------------
B|------------------------------------------
G|---9--9--2--2--2--6--7--7--7--6--7--7--7--
D|---9--9--2--2--2--6--7--7--7--6--7--7--7--
A|---7--7--0--0--0--4--5--5--5--4--5--5--5--
E|--h---------------------------------------

Stave 4:

E|-------------
B|-------------
G|--7--4--2-----
D|--7--4--2--4--
A|--5--2--0--4--
E|----------2--

Stave 5:

E|---------------------------------------------------------------
B|---------------------------------------------------------------
G|--5--4----------------------------------------------------------
D|--5--4--4--7--6--4--4--7--6--4----7--6--------------------------
A|--3--2----------------------------7--6--4--7--6--4--4--7--6--4--
E|---------------------------------5--4--------------------------

http://www.guitartabcreator.com
Guitar Tab Creator is intended to store guitar tab created through the tool. It currently does not support in-line text editing. Any text you place in here will be lost. If you need to comment on your tab, please use the "Tab Notes" section located below.