Sound will begin in 5 seconds

Star Wars Cantina Pt1

01234567891011121314151617181920212223
E
B
G
D
A
E
B
0 1 2 3 4 5 6 7 8 9 10 11 12 13 14 15 16 17 18 19 20 21 22 23
Song Science #1: How Pros Use 6 Chords to Write Hit Songs
(/) Slide Up  (\) Slide Down  (h) Hammer On  (p) Pull Off  (b) Bend (r) Release (v) Vibrato

Stave 1:

E|------10------10------10---------5--3--2--1-----
B|--10------10------10------10--9--------------3--
G|------------------------------------------------
D|------------------------------------------------
A|------------------------------------------------
E|------------------------------------------------

Stave 2:

E|------10------10------10------9--3--3--3--8-------------
B|--10------10------10------10-----------------11--10--8--
G|--------------------------------------------------------
D|--------------------------------------------------------
A|--------------------------------------------------------
E|--------------------------------------------------------

Stave 3:

E|------10------10------10---------8--8------1-----
B|--10------10------10------10--9--------10-----3--
G|-------------------------------------------------
D|-------------------------------------------------
A|-------------------------------------------------
E|-------------------------------------------------

Stave 4:

E|-------------------10----------------------
B|------------10--8------9-------------------
G|-----7--10---------------------------------
D|--8-----------------------10---------------
A|------------------------------8--7---------
E|------------------------------------10--8--

http://www.guitartabcreator.com
Guitar Tab Creator is intended to store guitar tab created through the tool. It currently does not support in-line text editing. Any text you place in here will be lost. If you need to comment on your tab, please use the "Tab Notes" section located below.