Sound will begin in 5 seconds

O My Heart Sings (PS)

01234567891011121314151617181920212223
E
B
G
D
A
E
B
0 1 2 3 4 5 6 7 8 9 10 11 12 13 14 15 16 17 18 19 20 21 22 23
Song Science #1: How Pros Use 6 Chords to Write Hit Songs
(/) Slide Up  (\) Slide Down  (h) Hammer On  (p) Pull Off  (b) Bend (r) Release (v) Vibrato

Stave 1:

E|------------------------------------------------|-------------------------------------------|--
B|--8/10--10--10--10\8-----8/10--10--10--10\8-----|--8/10--10--10--10--12--12b13--13r12--12v--|--
G|----------------------7----------------------7--|-------------------------------------------|--
D|------------------------------------------------|-------------------------------------------|--
A|------------------------------------------------|-------------------------------------------|--
E|------------------------------------------------|-------------------------------------------|--

Stave 2:

E|-------------------------------------------------|------------------------------------------|--
B|--8/10--10--10--10\8-----8/10--10--10--10--8-----|--7h8p7-----------------------------------|--
G|----------------------7-----------------------7--|---------7--------------------------------|--
D|-------------------------------------------------|------------7h9p7-------------------------|--
A|-------------------------------------------------|-------------------10--9v-----------------|--
E|-------------------------------------------------|------------------------------------------|--

Stave 3:

E|------15------15----------15------15----------15--|------15------15----------------------------------|--
B|--13------13------13--12------12------12--12------|--------------------------15------15----------15--|--
G|--------------------------------------------------|--14------14------14--12------12------12--12------|--
D|--------------------------------------------------|--------------------------------------------------|--
A|--------------------------------------------------|--------------------------------------------------|--
E|--------------------------------------------------|--------------------------------------------------|--

Stave 4:

E|------15------15----------15------15---------|--------------12--14--15--17v-----------------|--
B|--13------13------13--12------12------12-----|--12--13--15----------------------------------|--
G|---------------------------------------------|----------------------------------------------|--
D|---------------------------------------------|----------------------------------------------|--
A|---------------------------------------------|----------------------------------------------|--
E|---------------------------------------------|----------------------------------------------|--

Stave 5:

E|--15--15p12-------------------------------------------------------|--
B|-------------15p12--15p12---------15p12---------------------------|--
G|---------------------------14p12---------14p12---------12p11--12--|--
D|------------------------------------------------14p12-------------|--
A|------------------------------------------------------------------|--
E|------------------------------------------------------------------|--

http://www.guitartabcreator.com
Guitar Tab Creator is intended to store guitar tab created through the tool. It currently does not support in-line text editing. Any text you place in here will be lost. If you need to comment on your tab, please use the "Tab Notes" section located below.