Sound will begin in 5 seconds

Ben Howard - Only Love (Solo)

Chords
01234567891011121314151617181920212223
E
B
G
D
A
E
B
0 1 2 3 4 5 6 7 8 9 10 11 12 13 14 15 16 17 18 19 20 21 22 23
Song Science #1: How Pros Use 6 Chords to Write Hit Songs
(/) Slide Up  (\) Slide Down  (h) Hammer On  (p) Pull Off  (b) Bend (r) Release (v) Vibrato

Capo Fret 3

Stave 1:

C |----------x---------------x----------
G |----------x---------------x----------
G |----------x---------------x----------
C |-----4-5--5--7p4-----4-5--5--7p4-----
F |-----4-5--5----------4-5--5----------
Bb|--0-------x-------0-------x----------

Stave 2:

C |----------x-----------x----------x----------x-----
G |----------x-----------x----------x----------x-----
G |----------x-----5-----x----------x----------x-----
C |-----4h5--5--------7--7-----5p4--4----------x-----
F |----------x-----------x----------x-----7p4--4-----
Bb|--4-------x--4--------x--4-------x--4-------x-----

Stave 3:

C |--------x----------x--
G |--------x----------x--
G |--------x----------x--
C |-----8--8-----7p5--x--
F |--------x----------5--
Bb|--0-----x--0-------x--

Stave 4:

C |------------x------------4------------x------------
G |------------x------------4------------x------------
G |------------x------------4------------x------------
C |-----4h5h4--x-----4h5h4--4-----4h5h4--x-----4h5h4--
F |------------x------------4------------x------------
Bb|--4---------x--4---------4--4---------x--4---------

Stave 5:

C |----------x-----------x----------x----------------
G |----------x-----------x----------x----------------
G |----------x-----5-----x----------x----------------
C |-----4h5--5--------7--7-----5p4--4----------------
F |----------x-----------x----------x-----2v--p0-----
Bb|--4-------x--4--------x--4-------x--4----------4--

Stave 6:

C |----------------------------------------
G |----------------------------------------
G |----------------------------------------
C |-----5--------4--------5--------5-0-----
F |-----4--------2--------5--------5-0-----
Bb|--4--------2--------0--------0----------

Stave 7:

C |--------------------------------------
G |--------------------------------------
G |------------------12------------------
C |-----4-5-----4-5--12-----4-5-----4----
F |-----4-5-----4-5---------4-5-----4----
Bb|--0-------0-----------0-------0-------

http://www.guitartabcreator.com
Guitar Tab Creator is intended to store guitar tab created through the tool. It currently does not support in-line text editing. Any text you place in here will be lost. If you need to comment on your tab, please use the "Tab Notes" section located below.