Golden Wind - Giornos Theme middle part

01234567891011121314151617181920212223
E
B
G
D
A
E
B
0 1 2 3 4 5 6 7 8 9 10 11 12 13 14 15 16 17 18 19 20 21 22 23
(/) Slide Up  (\) Slide Down  (h) Hammer On  (p) Pull Off  (b) Bend (r) Release (v) Vibrato

Stave 1:

E|-------------------------------------7--
B|--5/7-----3h5/6--5--3--2--3--5--5/7-----
G|-------7--------------------------------
D|----------------------------------------
A|----------------------------------------
E|----------------------------------------

Stave 2:

E|--------------------5--3--------
B|--0--2--3--5--3--2--------7-----
G|-----------------------------7--
D|--------------------------------
A|--------------------------------
E|--------------------------------

Stave 3:

E|---------------------------7--
B|--3h5/6--5--3--2--3--5--7-----
G|------------------------------
D|------------------------------
A|------------------------------
E|------------------------------

Stave 4:

E|--7--9--10-----------10--5/7--
B|------------8--7--6-----------
G|------------------------------
D|------------------------------
A|------------------------------
E|------------------------------

							http://www.guitartabcreator.com
Chords

Instruments
{"strings":[[[".",".",".",".",".",".",".",".",".",".",".",".",".",".",".",".",".",7],[5,"/",7,".",3,"h",5,"/",6,5,3,2,3,5,5,"/",7,"."],[".",".",".",7,".",".",".",".",".",".",".",".",".",".",".",".",".","."],[".",".",".",".",".",".",".",".",".",".",".",".",".",".",".",".",".","."],[".",".",".",".",".",".",".",".",".",".",".",".",".",".",".",".",".","."],[".",".",".",".",".",".",".",".",".",".",".",".",".",".",".",".",".","."]],[[".",".",".",".",".",".",5,3,".","."],[0,2,3,5,3,2,".",".",7,"."],[".",".",".",".",".",".",".",".",".",7],[".",".",".",".",".",".",".",".",".","."],[".",".",".",".",".",".",".",".",".","."],[".",".",".",".",".",".",".",".",".","."]],[[".",".",".",".",".",".",".",".",".",".",".",7],[3,"h",5,"/",6,5,3,2,3,5,7,"."],[".",".",".",".",".",".",".",".",".",".",".","."],[".",".",".",".",".",".",".",".",".",".",".","."],[".",".",".",".",".",".",".",".",".",".",".","."],[".",".",".",".",".",".",".",".",".",".",".","."]],[[7,9,10,".",".",".",10,5,"/",7],[".",".",".",8,7,6,".",".",".","."],[".",".",".",".",".",".",".",".",".","."],[".",".",".",".",".",".",".",".",".","."],[".",".",".",".",".",".",".",".",".","."],[".",".",".",".",".",".",".",".",".","."]]],"numberofstrings":6,"notes":["E","B","G","D","A","E","B"],"capo":0,"stringnotes":["E4","B3","G3","D3","A2","E2"],"comments":["Stave 1:","Stave 2:","Stave 3:","Stave 4:"],"timing":[["W",null,"W","W","W",null,"W",null,"W","W","W","W","W","W","W",null,"W","W"],["W","W","W","W","W","W","W","W","W","W"],["W",null,"W",null,"W","W","W","W","W","W","W","W"],["W","W","W","W","W","W","W","W",null,"W"]],"timingvisible":false,"tabcounter":10,"stave":3,"totalstaves":4,"instrument":"6guitar","selectedtuning":"6_standard","version":"13"}

Member for

1 month 3 weeks
Picture
About Me
yes
Submitted by ErickoHam on Wed, 2021-08-04 10:56