Sound will begin in 5 seconds

Computer Blue main solo (part1)

Chords
01234567891011121314151617181920212223
E
B
G
D
A
E
B
0 1 2 3 4 5 6 7 8 9 10 11 12 13 14 15 16 17 18 19 20 21 22 23
Song Science #1: How Pros Use 6 Chords to Write Hit Songs
(/) Slide Up  (\) Slide Down  (h) Hammer On  (p) Pull Off  (b) Bend (r) Release (v) Vibrato

Stave 1:

E|--10--9-------------|--------------------------|--10--9-------------|--------------------
B|------------10------|--------10----------------|------------10------|--------------------
G|----------------11--|--9b11---------9b11p7-----|----------------11--|--9b11--7-----9b11--
D|--------------------|-----------------------9--|--------------------|--------------------
A|--------------------|--------------------------|--------------------|--------------------
E|--------------------|--------------------------|--------------------|--------------------

Stave 2:

E|--15--14----------|-------------------|--10--9-------------|--------------
B|----------15------|--17b19-----15h17--|------------10------|--7--7--------
G|--------------16--|-------------------|----------------11--|--7--7--------
D|------------------|-------------------|--------------------|--7--7-----9--
A|------------------|-------------------|--------------------|--------------
E|------------------|-------------------|--------------------|--------------

Stave 3:

E|---------------------10--9------------------------------15--14--15--14--
B|--12--10--------------------11---------17b19-----15h17------------------
G|----------12--------------------11--------------------------------------
D|--------------11--------------------------------------------------------
A|------------------------------------------------------------------------
E|------------------------------------------------------------------------

Stave 4:

E|--12--10--9----------------------------------------------------------------------------------
B|-------------10--------10-----9-----7--------------------------------------------------------
G|--------------------9------9-----9-----7-----7--6--4-----6--7--9b11-----4--6--7--9b11p9------
D|-----------------------------------------------------------------------------------------11--
A|---------------------------------------------------------------------------------------------
E|---------------------------------------------------------------------------------------------

http://www.guitartabcreator.com
Guitar Tab Creator is intended to store guitar tab created through the tool. It currently does not support in-line text editing. Any text you place in here will be lost. If you need to comment on your tab, please use the "Tab Notes" section located below.