Sound will begin in 5 seconds

sdfghjkl;

Chords
01234567891011121314151617181920212223
E
B
G
D
A
E
B
0 1 2 3 4 5 6 7 8 9 10 11 12 13 14 15 16 17 18 19 20 21 22 23
(/) Slide Up  (\) Slide Down  (h) Hammer On  (p) Pull Off  (b) Bend (r) Release (v) Vibrato

Stave 1:

E|--8h10-----10--10-----8--7--7h8--7----------7--------------------
B|------------------------------------10--10--------8--------------
G|-----------------------------------------------------------------
D|-----------------------------------------------------------------
A|-----------------------------------------------------------------
E|-----------------------------------------------------------------

Stave 2:

E|--8h10-----10--10-----8--7--7h8--7-------------7--------------
B|---------------------------------------10--10-----8-----------
G|--------------------------------------------------------------
D|--------------------------------------------------------------
A|--------------------------------------------------------------
E|--------------------------------------------------------------

Stave 3:

E|--10-14-------------14------12--_--10--_--12--_--10--_--10-7-----
B|--12-15-----15--15------13------12--_--13--_--12--_--12--12-8-----
G|--------------------------------_--_--_--_--_--_--_--_-------
D|--------------------------------_--_--_--_--_--_--_--_-------
A|--------------------------------_--_--_--_--_--_--_--_-------
E|--------------------------------_--_--_--_--_--_--_--_-------

Stave 4:

E|----------10------12--_--10--10-7-----8---8--10-----9--------------10------9--8---8------
B|--12--12------13------12--_--12-8-----10--10-12-----11-----12--12------11-----10--10-----
G|----------------------_--_--_-------_--_-_-----_-----------------------------------
D|----------------------_--_--_-------_--_-_-----_-----------------------------------
A|----------------------_--_--_-------_--_-_-----_-----------------------------------
E|----------------------_--_--_-------_--_-_-----_-----------------------------------

Stave 5:

E|-----------------------------------------------------------------------------
B|-----------------------------------------------------------------------------
G|--5h7--7--7--5--4--4h5--4--------4-----------5h7--7--7--9--9--9--------------
D|------------------------------7-----7--5-------------------------------------
A|-----------------------------------------------------------------------------
E|-----------------------------------------------------------------------------

Stave 6:

E|-----------------------------2-----2-----0-----0-----0-----0--------------0-----0-----0-----0-----
B|-----------------------3--3-----3-----1-----0-----1-----0-----0-----0--0-----0-----1-----0-----0--
G|--4--------4--------------------------------------------------0--------------------------------0--
D|-----7--7-----7--5--------------------------------------------------------------------------------
A|--------------------------------------------------------------------------------------------------
E|--------------------------------------------------------------------------------------------------

Stave 7:

E|-------------------------------------7-----7-----6-----5--3--------------------------
B|----------------------------------------------------------0--------------------------
G|--5-7--------7-----6-----5-----7--7-----7-----6-----5-----4--------------------------
D|--7-9--9--9-----8-----7--7-----------------------------------------------------------
A|-------------------------------------------------------------------------------------
E|-------------------------------------------------------------------------------------

							http://www.guitartabcreator.com
Note:
Guitar Tab Creator is intended to store guitar tab created through the tool. It currently does not support in-line text editing. Any text you place in here will be lost. If you need to comment on your tab, please use the "Tab Notes" section located below.