Ojos de miel

Chords

01234567891011121314151617181920212223
E
B
G
D
A
E
B
0 1 2 3 4 5 6 7 8 9 10 11 12 13 14 15 16 17 18 19 20 21 22 23
(/) Slide Up  (\) Slide Down  (h) Hammer On  (p) Pull Off  (b) Bend (r) Release (v) Vibrato

Stave 1:

E|--9--10------10----------------------10---------10-14--14--14--14--14--14--14-----
B|--11-12--12------12---------b12--12------12-----12-15--15--15--15--15--15--15-----
G|----------------------------------------------------------------------------------
D|----------------------------------------------------------------------------------
A|----------------------------------------------------------------------------------
E|----------------------------------------------------------------------------------

Stave 2:

E|--10--10-8------7-8-------8------8------------7-----7--7-8------8---8---8---
B|--12--12-10-----8-10--10-----10-----10-----8-----9-----9-10-----10--10--10--
G|------------------------------------------------------------------------------
D|------------------------------------------------------------------------------
A|------------------------------------------------------------------------------
E|------------------------------------------------------------------------------

Stave 3:

E|--7--8---8--10--8---7--5-----5--5-10--8---7--5--7--
B|--8--10--10-12--10--8--7-----7--7-12--10--8--7--8--
G|---------------------------------------------------
D|---------------------------------------------------
A|---------------------------------------------------
E|---------------------------------------------------

Stave 4:

E|--9--10------10-------------------10--10-14--14--14--14--14--14--14--
B|--11-12--12------12--------11/12------12-15--15--15--15--15--15--15--
G|---------------------------------------------------------------------
D|---------------------------------------------------------------------
A|---------------------------------------------------------------------
E|---------------------------------------------------------------------

Stave 5:

E|--10--10-8-------8---------7-8-------8------8------------7-----7--7-8---
B|--12--12-10--10-----10-----8-10--10-----10-----10--8--8-----9-----8-10--
G|------------------------------------------------------------------------
D|------------------------------------------------------------------------
A|------------------------------------------------------------------------
E|------------------------------------------------------------------------

Stave 6:

E|--8---8---8------7--8---8--10--8---7--5--5-10--8---7--5--7--8---8--10-----5--5-3--
B|--10--10--10-----8--10--10-12--10--8--7--7-12--10--8--7--8--10--10-12-----7--7-5--
G|----------------------------------------------------------------------------------
D|----------------------------------------------------------------------------------
A|----------------------------------------------------------------------------------
E|----------------------------------------------------------------------------------

							http://www.guitartabcreator.com
Instruments
{"strings":[[[9,"/",10,".",10,".",".",".",".",".",".",".",10,".",".",10,"/",14,14,14,14,14,14,14,"."],[11,"/",12,12,".",12,".",".",".","b",12,12,".",12,".",12,"/",15,15,15,15,15,15,15,"."],[".",".",".",".",".",".",".",".",".",".",".",".",".",".",".",".",".",".",".",".",".",".",".",".","."],[".",".",".",".",".",".",".",".",".",".",".",".",".",".",".",".",".",".",".",".",".",".",".",".","."],[".",".",".",".",".",".",".",".",".",".",".",".",".",".",".",".",".",".",".",".",".",".",".",".","."],[".",".",".",".",".",".",".",".",".",".",".",".",".",".",".",".",".",".",".",".",".",".",".",".","."]],[[10,10,"\\",8,".",7,"/",8,".",8,".",8,".",".","_",7,"_",7,7,"/",8,"_",8,8,8],[12,12,"\\",10,".",8,"/",10,10,".",10,".",10,".",8,"_",9,".",9,"/",10,"_",10,10,10],[".",".",".",".",".",".",".",".",".",".",".",".",".",".","_","_","_",".","_","_",".","_",".",".","."],[".",".",".",".",".",".",".",".",".",".",".",".",".",".","_","_","_",".","_","_",".","_",".",".","."],[".",".",".",".",".",".",".",".",".",".",".",".",".",".","_","_","_",".","_","_",".","_",".",".","."],[".",".",".",".",".",".",".",".",".",".",".",".",".",".","_","_","_",".","_","_",".","_",".",".","."]],[[7,8,8,"/",10,8,7,5,".",5,5,"/",10,8,7,5,7],[8,10,10,"/",12,10,8,7,".",7,7,"/",12,10,8,7,8],[".",".",".",".",".",".",".",".",".",".",".",".",".",".",".",".","."],[".",".",".",".",".",".",".",".",".",".",".",".",".",".",".",".","."],[".",".",".",".",".",".",".",".",".",".",".",".",".",".",".",".","."],[".",".",".",".",".",".",".",".",".",".",".",".",".",".",".",".","."]],[[9,"/",10,".",10,".",".",".",".",".",".",10,10,"/",14,14,14,14,14,14,14],[11,"/",12,12,".",12,".",".",11,"/",12,".",12,"/",15,15,15,15,15,15,15],[".",".",".",".",".",".",".",".",".",".",".",".",".",".",".",".",".",".",".",".","."],[".",".",".",".",".",".",".",".",".",".",".",".",".",".",".",".",".",".",".",".","."],[".",".",".",".",".",".",".",".",".",".",".",".",".",".",".",".",".",".",".",".","."],[".",".",".",".",".",".",".",".",".",".",".",".",".",".",".",".",".",".",".",".","."]],[[10,10,"\\",8,".",8,".",".",7,"/",8,".",8,".",8,".",".",".",7,".",7,7,"/",8],[12,12,"\\",10,10,".",10,".",8,"/",10,10,".",10,".",10,8,8,".",9,".",8,"/",10],[".",".",".",".",".",".",".",".",".",".",".",".",".",".",".",".",".",".",".",".",".",".",".","."],[".",".",".",".",".",".",".",".",".",".",".",".",".",".",".",".",".",".",".",".",".",".",".","."],[".",".",".",".",".",".",".",".",".",".",".",".",".",".",".",".",".",".",".",".",".",".",".","."],[".",".",".",".",".",".",".",".",".",".",".",".",".",".",".",".",".",".",".",".",".",".",".","."]],[[8,8,8,".",7,8,8,"/",10,8,7,5,5,"/",10,8,7,5,7,8,8,"/",10,".",5,5,"\\",3],[10,10,10,".",8,10,10,"/",12,10,8,7,7,"/",12,10,8,7,8,10,10,"/",12,".",7,7,"\\",5],[".",".",".",".",".",".",".",".",".",".",".",".",".",".",".",".",".",".",".",".",".",".",".",".",".",".",".","."],[".",".",".",".",".",".",".",".",".",".",".",".",".",".",".",".",".",".",".",".",".",".",".",".",".",".",".","."],[".",".",".",".",".",".",".",".",".",".",".",".",".",".",".",".",".",".",".",".",".",".",".",".",".",".",".","."],[".",".",".",".",".",".",".",".",".",".",".",".",".",".",".",".",".",".",".",".",".",".",".",".",".",".",".","."]]],"numberofstrings":6,"notes":["E","B","G","D","A","E","B"],"capo":0,"stringnotes":["E4","B3","G3","D3","A2","E2"],"comments":["Stave 1:","Stave 2:","Stave 3:","Stave 4:","Stave 5:","Stave 6:"],"timing":[[null,null,null,null,null,null,null,null,null,null,null,null,null,null,null,null,null,null,null,null,null,null,null,null,null,"W"],[null,"W",null,"W",null,"W","W","W",null,"W",null,"W",null,"W",null,"W","W","W","W","W","W","W",null,null,"W","W"],[null,"W","W","W",null,"W","W","W","W","W","W",null,"W","W","W","W","W","W"],[null,"W","W","W","W","W",null,null,"W","W",null,"W",null,"W",null,"W","W","W","W","W","W","W"],[null,"W",null,"W","W","W","W","W",null,"W",null,"W",null,"W","W",null,"W",null,null,null,null,null,"W",null,"W"],[null,"W","W","W",null,null,"W","W",null,"W","W","W","W",null,"W","W","W","W","W","W","W","W",null,"W",null,"W","W",null,"W"]],"timingvisible":false,"tabcounter":28,"stave":5,"totalstaves":6,"instrument":"6guitar","selectedtuning":"6_standard","version":"13"}

Member for

10 months 1 week
Submitted by EricBarrientos on Thu, 2020-10-01 01:10