malmsteenn lick 4

Chords

01234567891011121314151617181920212223
E
B
G
D
A
E
B
0 1 2 3 4 5 6 7 8 9 10 11 12 13 14 15 16 17 18 19 20 21 22 23
(/) Slide Up  (\) Slide Down  (h) Hammer On  (p) Pull Off  (b) Bend (r) Release (v) Vibrato

Stave 1:

E|--16--17--16--13------------------------------
B|------------------17--15--13--15--17--15--13--
G|----------------------------------------------
D|----------------------------------------------
A|----------------------------------------------
E|----------------------------------------------

Stave 2:

E|----------------------------------------------------------
B|----------------------------------------------------------
G|--16--14--13--14--16--14--13------------------------------
D|------------------------------15--14--12--14--15--14--12--
A|----------------------------------------------------------
E|----------------------------------------------------------

Stave 3:

E|--------------------------------------------------
B|--------------------------------------------------
G|--------------------------------------------------
D|--------------------------------------------------
A|--15--14--12--11--12--14--12--11------------------
E|----------------------------------13--12--10--12--

							http://www.guitartabcreator.com
Instruments
{"strings":[[[16,17,16,13,".",".",".",".",".",".","."],[".",".",".",".",17,15,13,15,17,15,13],[".",".",".",".",".",".",".",".",".",".","."],[".",".",".",".",".",".",".",".",".",".","."],[".",".",".",".",".",".",".",".",".",".","."],[".",".",".",".",".",".",".",".",".",".","."]],[[".",".",".",".",".",".",".",".",".",".",".",".",".","."],[".",".",".",".",".",".",".",".",".",".",".",".",".","."],[16,14,13,14,16,14,13,".",".",".",".",".",".","."],[".",".",".",".",".",".",".",15,14,12,14,15,14,12],[".",".",".",".",".",".",".",".",".",".",".",".",".","."],[".",".",".",".",".",".",".",".",".",".",".",".",".","."]],[[".",".",".",".",".",".",".",".",".",".",".","."],[".",".",".",".",".",".",".",".",".",".",".","."],[".",".",".",".",".",".",".",".",".",".",".","."],[".",".",".",".",".",".",".",".",".",".",".","."],[15,14,12,11,12,14,12,11,".",".",".","."],[".",".",".",".",".",".",".",".",13,12,10,12]]],"numberofstrings":6,"notes":["E","B","G","D","A","E","B"],"capo":0,"stringnotes":["E4","B3","G3","D3","A2","E2"],"comments":["Stave 1:","Stave 2:","Stave 3:"],"timing":[["W","W","W","W","W","W","W","W","W","W","W"],["W","W","W","W","W","W","W","W","W","W","W","W","W","W"],["W","W","W","W","W","W","W","W","W","W","W","W"]],"timingvisible":false,"tabcounter":12,"stave":2,"totalstaves":3,"instrument":"6guitar","selectedtuning":"6_standard","version":"13"}

Member for

3 years 8 months
Submitted by eric walker on Mon, 2020-09-14 10:27