malmsteen lick 6

Chords

01234567891011121314151617181920212223
E
B
G
D
A
E
B
0 1 2 3 4 5 6 7 8 9 10 11 12 13 14 15 16 17 18 19 20 21 22 23
(/) Slide Up  (\) Slide Down  (h) Hammer On  (p) Pull Off  (b) Bend (r) Release (v) Vibrato

Stave 1:

E|--------------10--12--13--12--10--------------
B|--10--12--13----------------------13--12--10--
G|----------------------------------------------
D|----------------------------------------------
A|----------------------------------------------
E|----------------------------------------------

Stave 2:

E|-------------8--10--12--10--8-------------
B|--9--10--12--------------------12--10--9--
G|------------------------------------------
D|------------------------------------------
A|------------------------------------------
E|------------------------------------------

Stave 3:

E|--------------13--16--17--16--13----------------------
B|--13--15--17----------------------17--15--13--15--17--
G|------------------------------------------------------
D|------------------------------------------------------
A|------------------------------------------------------
E|------------------------------------------------------

Stave 4:

E|--13--16--17--16--17--19--17--19--20--19--20--22--20--22--23--
B|--------------------------------------------------------------
G|--------------------------------------------------------------
D|--------------------------------------------------------------
A|--------------------------------------------------------------
E|--------------------------------------------------------------

							http://www.guitartabcreator.com
Instruments
{"strings":[[[".",".",".",10,12,13,12,10,".",".","."],[10,12,13,".",".",".",".",".",13,12,10],[".",".",".",".",".",".",".",".",".",".","."],[".",".",".",".",".",".",".",".",".",".","."],[".",".",".",".",".",".",".",".",".",".","."],[".",".",".",".",".",".",".",".",".",".","."]],[[".",".",".",8,10,12,10,8,".",".","."],[9,10,12,".",".",".",".",".",12,10,9],[".",".",".",".",".",".",".",".",".",".","."],[".",".",".",".",".",".",".",".",".",".","."],[".",".",".",".",".",".",".",".",".",".","."],[".",".",".",".",".",".",".",".",".",".","."]],[[".",".",".",13,16,17,16,13,".",".",".",".","."],[13,15,17,".",".",".",".",".",17,15,13,15,17],[".",".",".",".",".",".",".",".",".",".",".",".","."],[".",".",".",".",".",".",".",".",".",".",".",".","."],[".",".",".",".",".",".",".",".",".",".",".",".","."],[".",".",".",".",".",".",".",".",".",".",".",".","."]],[[13,16,17,16,17,19,17,19,20,19,20,22,20,22,23],[".",".",".",".",".",".",".",".",".",".",".",".",".",".","."],[".",".",".",".",".",".",".",".",".",".",".",".",".",".","."],[".",".",".",".",".",".",".",".",".",".",".",".",".",".","."],[".",".",".",".",".",".",".",".",".",".",".",".",".",".","."],[".",".",".",".",".",".",".",".",".",".",".",".",".",".","."]]],"numberofstrings":6,"notes":["E","B","G","D","A","E","B"],"capo":0,"stringnotes":["E4","B3","G3","D3","A2","E2"],"comments":["Stave 1:","Stave 2:","Stave 3:","Stave 4:"],"timing":[["W","W","W","W","W","W","W","W","W","W","W"],["W","W","W","W","W","W","W","W","W","W","W"],["W","W","W","W","W","W","W","W","W","W","W","W","W"],["W","W","W","W","W","W","W","W","W","W","W","W","W","W","W"]],"timingvisible":false,"tabcounter":15,"stave":3,"totalstaves":4,"instrument":"6guitar","selectedtuning":"6_standard","version":"13"}

Member for

3 years 8 months
Submitted by eric walker on Tue, 2020-09-15 10:57