malmsteen lick 5

Chords

01234567891011121314151617181920212223
E
B
G
D
A
E
B
0 1 2 3 4 5 6 7 8 9 10 11 12 13 14 15 16 17 18 19 20 21 22 23
(/) Slide Up  (\) Slide Down  (h) Hammer On  (p) Pull Off  (b) Bend (r) Release (v) Vibrato

Stave 1:

E|--------------------------------
B|--------------------------------
G|--------------------------------
D|--------------------------------
A|-----------5-----7-----5--------
E|--5--7--8-----8-----8-----7--5--

Stave 2:

E|---------------------------------------
B|---------------------------------------
G|---------------------------------------
D|---------------------------------------
A|--8-----5h7p5-----------------5--7--8--
E|-----7---------8--7--5--7--8-----------

Stave 3:

E|--------------------------------------------
B|--------------------------------------------
G|--------------------------------------------
D|---------------------7------9------7--------
A|--6--7--9--7--9--10-----10-----10-----9--7--
E|--------------------------------------------

Stave 4:

E|----------------------------------------
B|----------------------------------------
G|--9-----10-----9-----7-----9-----10--9--
D|-----7------7-----7-----7-----7---------
A|----------------------------------------
E|----------------------------------------

							http://www.guitartabcreator.com
Instruments
{"strings":[[[".",".",".",".",".",".",".",".",".","."],[".",".",".",".",".",".",".",".",".","."],[".",".",".",".",".",".",".",".",".","."],[".",".",".",".",".",".",".",".",".","."],[".",".",".",5,".",7,".",5,".","."],[5,7,8,".",8,".",8,".",7,5]],[[".",".",".",".",".",".",".",".",".",".",".",".",".",".","."],[".",".",".",".",".",".",".",".",".",".",".",".",".",".","."],[".",".",".",".",".",".",".",".",".",".",".",".",".",".","."],[".",".",".",".",".",".",".",".",".",".",".",".",".",".","."],[8,".",5,"h",7,"p",5,".",".",".",".",".",5,7,8],[".",7,".",".",".",".",".",8,7,5,7,8,".",".","."]],[[".",".",".",".",".",".",".",".",".",".",".",".","."],[".",".",".",".",".",".",".",".",".",".",".",".","."],[".",".",".",".",".",".",".",".",".",".",".",".","."],[".",".",".",".",".",".",7,".",9,".",7,".","."],[6,7,9,7,9,10,".",10,".",10,".",9,7],[".",".",".",".",".",".",".",".",".",".",".",".","."]],[[".",".",".",".",".",".",".",".",".",".",".","."],[".",".",".",".",".",".",".",".",".",".",".","."],[9,".",10,".",9,".",7,".",9,".",10,9],[".",7,".",7,".",7,".",7,".",7,".","."],[".",".",".",".",".",".",".",".",".",".",".","."],[".",".",".",".",".",".",".",".",".",".",".","."]]],"numberofstrings":6,"notes":["E","B","G","D","A","E","B"],"capo":0,"stringnotes":["E4","B3","G3","D3","A2","E2"],"comments":["Stave 1:","Stave 2:","Stave 3:","Stave 4:"],"timing":[["W","W","W","W","W","W","W","W","W","W"],["W","W","W",null,"W",null,"W","W","W","W","W","W","W","W","W"],["W","W","W","W","W","W","W","W","W","W","W","W","W"],["W","W","W","W","W","W","W","W","W","W","W","W"]],"timingvisible":false,"tabcounter":12,"stave":3,"totalstaves":4,"instrument":"6guitar","selectedtuning":"6_standard","version":"13"}

Member for

3 years 8 months
Submitted by eric walker on Mon, 2020-09-14 10:33