malmsteen lick # 2

Chords

01234567891011121314151617181920212223
E
B
G
D
A
E
B
0 1 2 3 4 5 6 7 8 9 10 11 12 13 14 15 16 17 18 19 20 21 22 23
(/) Slide Up  (\) Slide Down  (h) Hammer On  (p) Pull Off  (b) Bend (r) Release (v) Vibrato

Stave 1:

E|-------------10h13-------------13--16--------------16h19--
B|---------12----------------15------------------18---------
G|--10h13-------------13h16--------------16--19-------------
D|----------------------------------------------------------
A|----------------------------------------------------------
E|----------------------------------------------------------

Stave 2:

E|--------------13h16--------------16h19-------------19h22--
B|----------15-----------------18----------------21---------
G|--13--16-------------16--19-------------19h22-------------
D|----------------------------------------------------------
A|----------------------------------------------------------
E|----------------------------------------------------------

Stave 3:

E|--23--22--23--19--22--20--22--17--20--19--20--16--
B|--------------------------------------------------
G|--------------------------------------------------
D|--------------------------------------------------
A|--------------------------------------------------
E|--------------------------------------------------

Stave 4:

E|--19--17--19--13--17--16--17--
B|------------------------------
G|------------------------------
D|------------------------------
A|------------------------------
E|------------------------------

							http://www.guitartabcreator.com
Instruments
{"strings":[[[".",".",".",".",10,"h",13,".",".",".",".",13,16,".",".",".",16,"h",19],[".",".",".",12,".",".",".",".",".",".",15,".",".",".",".",18,".",".","."],[10,"h",13,".",".",".",".",13,"h",16,".",".",".",16,19,".",".",".","."],[".",".",".",".",".",".",".",".",".",".",".",".",".",".",".",".",".",".","."],[".",".",".",".",".",".",".",".",".",".",".",".",".",".",".",".",".",".","."],[".",".",".",".",".",".",".",".",".",".",".",".",".",".",".",".",".",".","."]],[[".",".",".",13,"h",16,".",".",".",16,"h",19,".",".",".",".",19,"h",22],[".",".",15,".",".",".",".",".",18,".",".",".",".",".",".",21,".",".","."],[13,16,".",".",".",".",16,19,".",".",".",".",19,"h",22,".",".",".","."],[".",".",".",".",".",".",".",".",".",".",".",".",".",".",".",".",".",".","."],[".",".",".",".",".",".",".",".",".",".",".",".",".",".",".",".",".",".","."],[".",".",".",".",".",".",".",".",".",".",".",".",".",".",".",".",".",".","."]],[[23,22,23,19,22,20,22,17,20,19,20,16],[".",".",".",".",".",".",".",".",".",".",".","."],[".",".",".",".",".",".",".",".",".",".",".","."],[".",".",".",".",".",".",".",".",".",".",".","."],[".",".",".",".",".",".",".",".",".",".",".","."],[".",".",".",".",".",".",".",".",".",".",".","."]],[[19,17,19,13,17,16,17],[".",".",".",".",".",".","."],[".",".",".",".",".",".","."],[".",".",".",".",".",".","."],[".",".",".",".",".",".","."],[".",".",".",".",".",".","."]]],"numberofstrings":6,"notes":["E","B","G","D","A","E","B"],"capo":0,"stringnotes":["E4","B3","G3","D3","A2","E2"],"comments":["Stave 1:","Stave 2:","Stave 3:","Stave 4:"],"timing":[[null,null,null,null,null,null,null,null,null,null,null,null,null,null,null,null,null,null,null],[null,null,null,null,null,null,null,null,null,null,null,null,null,null,null,null,null,null,null],[null,null,null,null,null,null,null,null,null,null,null,null],[null,null,null,null,null,null,null]],"timingvisible":false,"tabcounter":7,"stave":3,"totalstaves":4,"instrument":"6guitar","selectedtuning":"6_standard","version":"13"}

Member for

3 years 8 months
Submitted by eric walker on Mon, 2020-09-14 10:13