malmsteen lick 1

Chords

01234567891011121314151617181920212223
E
B
G
D
A
E
B
0 1 2 3 4 5 6 7 8 9 10 11 12 13 14 15 16 17 18 19 20 21 22 23
(/) Slide Up  (\) Slide Down  (h) Hammer On  (p) Pull Off  (b) Bend (r) Release (v) Vibrato

Stave 1:

E|--13p10-----------------10--13\
B|---------12---------12---------
G|-------------13p10-------------
D|-------------------------------
A|-------------------------------
E|-------------------------------

Stave 2:

E|--10p7-----------------7--10--
B|--------9-----------9---------
G|-----------10p7h10------------
D|------------------------------
A|------------------------------
E|------------------------------

Stave 3:

E|--7p4---------------4h7\
B|-------6---------6------
G|----------7p4h7---------
D|------------------------
A|------------------------
E|------------------------

Stave 4:

E|--10p7-----------------7h10\
B|--------9-----------9-------
G|-----------10p7h10----------
D|----------------------------
A|----------------------------
E|----------------------------

Stave 5:

E|--13p10--------------------10h13\
B|---------12------------12--------
G|-------------13p10h13------------
D|---------------------------------
A|---------------------------------
E|---------------------------------

							http://www.guitartabcreator.com
Instruments
{"strings":[[[13,"p",10,".",".",".",".",".",10,13,"\\"],[".",".",".",12,".",".",".",12,".",".","."],[".",".",".",".",13,"p",10,".",".",".","."],[".",".",".",".",".",".",".",".",".",".","."],[".",".",".",".",".",".",".",".",".",".","."],[".",".",".",".",".",".",".",".",".",".","."]],[[10,"p",7,".",".",".",".",".",".",".",7,10],[".",".",".",9,".",".",".",".",".",9,".","."],[".",".",".",".",10,"p",7,"h",10,".",".","."],[".",".",".",".",".",".",".",".",".",".",".","."],[".",".",".",".",".",".",".",".",".",".",".","."],[".",".",".",".",".",".",".",".",".",".",".","."]],[[7,"p",4,".",".",".",".",".",".",".",4,"h",7,"\\"],[".",".",".",6,".",".",".",".",".",6,".",".",".","."],[".",".",".",".",7,"p",4,"h",7,".",".",".",".","."],[".",".",".",".",".",".",".",".",".",".",".",".",".","."],[".",".",".",".",".",".",".",".",".",".",".",".",".","."],[".",".",".",".",".",".",".",".",".",".",".",".",".","."]],[[10,"p",7,".",".",".",".",".",".",".",7,"h",10,"\\"],[".",".",".",9,".",".",".",".",".",9,".",".",".","."],[".",".",".",".",10,"p",7,"h",10,".",".",".",".","."],[".",".",".",".",".",".",".",".",".",".",".",".",".","."],[".",".",".",".",".",".",".",".",".",".",".",".",".","."],[".",".",".",".",".",".",".",".",".",".",".",".",".","."]],[[13,"p",10,".",".",".",".",".",".",".",10,"h",13,"\\"],[".",".",".",12,".",".",".",".",".",12,".",".",".","."],[".",".",".",".",13,"p",10,"h",13,".",".",".",".","."],[".",".",".",".",".",".",".",".",".",".",".",".",".","."],[".",".",".",".",".",".",".",".",".",".",".",".",".","."],[".",".",".",".",".",".",".",".",".",".",".",".",".","."]]],"numberofstrings":6,"notes":["E","B","G","D","A","E","B"],"capo":0,"stringnotes":["E4","B3","G3","D3","A2","E2"],"comments":["Stave 1:","Stave 2:","Stave 3:","Stave 4:","Stave 5:"],"timing":[["W",null,"W","W","W",null,"W","W","W","W"],["W",null,"W","W","W",null,"W",null,"W","W","W","W"],["W",null,"W","W","W",null,"W",null,"W","W","W",null,"W"],["W",null,"W","W","W",null,"W",null,"W","W","W",null,"W"],["W",null,"W","W","W",null,"W",null,"W","W","W",null,"W"]],"timingvisible":false,"tabcounter":14,"stave":4,"totalstaves":5,"instrument":"6guitar","selectedtuning":"6_standard","version":"13"}

Member for

3 years 8 months
Submitted by eric walker on Mon, 2020-09-14 09:57