locrian pitch axis

Chords

01234567891011121314151617181920212223
E
B
G
D
A
E
B
0 1 2 3 4 5 6 7 8 9 10 11 12 13 14 15 16 17 18 19 20 21 22 23
(/) Slide Up  (\) Slide Down  (h) Hammer On  (p) Pull Off  (b) Bend (r) Release (v) Vibrato

Stave 1:

E|-----------------------------------------------3--5--7--
B|--------------------------------------3--5--7-----------
G|-----------------------------2--4--5--------------------
D|--------------------2--4--5-----------------------------
A|-----------2--3--5--------------------------------------
E|--2--3--5-----------------------------------------------

Stave 2:

E|--7--5--3-----------------------------------------------
B|-----------7--5--3--------------------------------------
G|--------------------5--4--2-----------------------------
D|-----------------------------5--4--2--------------------
A|--------------------------------------5--3--2-----------
E|-----------------------------------------------5--3--2--

							http://www.guitartabcreator.com
Instruments
{"strings":[[[".",".",".",".",".",".",".",".",".",".",".",".",".",".",".",3,5,7],[".",".",".",".",".",".",".",".",".",".",".",".",3,5,7,".",".","."],[".",".",".",".",".",".",".",".",".",2,4,5,".",".",".",".",".","."],[".",".",".",".",".",".",2,4,5,".",".",".",".",".",".",".",".","."],[".",".",".",2,3,5,".",".",".",".",".",".",".",".",".",".",".","."],[2,3,5,".",".",".",".",".",".",".",".",".",".",".",".",".",".","."]],[[7,5,3,".",".",".",".",".",".",".",".",".",".",".",".",".",".","."],[".",".",".",7,5,3,".",".",".",".",".",".",".",".",".",".",".","."],[".",".",".",".",".",".",5,4,2,".",".",".",".",".",".",".",".","."],[".",".",".",".",".",".",".",".",".",5,4,2,".",".",".",".",".","."],[".",".",".",".",".",".",".",".",".",".",".",".",5,3,2,".",".","."],[".",".",".",".",".",".",".",".",".",".",".",".",".",".",".",5,3,2]]],"numberofstrings":6,"notes":["E","B","G","D","A","E","B"],"capo":0,"stringnotes":["E4","B3","G3","D3","A2","E2"],"comments":["Stave 1:","Stave 2:"],"timing":[["W","W","W","W","W","W","W","W","W","W","W","W","W","W","W","W","W","W"],["W","W","W","W","W","W","W","W","W","W","W","W","W","W","W","W","W","W"]],"timingvisible":false,"tabcounter":18,"stave":1,"totalstaves":2,"instrument":"6guitar","selectedtuning":"6_standard","version":"13"}

Member for

3 years 9 months
Submitted by eric walker on Sat, 2020-09-19 02:24