Sound will begin in 5 seconds

a harmonic minior

01234567891011121314151617181920212223
E
B
G
D
A
E
B
0 1 2 3 4 5 6 7 8 9 10 11 12 13 14 15 16 17 18 19 20 21 22 23
(/) Slide Up  (\) Slide Down  (h) Hammer On  (p) Pull Off  (b) Bend (r) Release (v) Vibrato

Stave 1:

E|--------------------------------------------4--5--
B|-----------------------------------3--5--6--------
G|-----------------------1--2--4--5-----------------
D|-----------------2--3-----------------------------
A|--------2--3--5-----------------------------------
E|--4--5--------------------------------------------

Stave 2:

E|-----------------------------------------4--5--7--8--
B|-----------------------------------5--6--------------
G|--------------------------4--5--7--------------------
D|--------------------6--7-----------------------------
A|-----------5--7--8-----------------------------------
E|--5--7--8--------------------------------------------

Stave 3:

E|------------------------------------------------7--8--10--
B|-----------------------------------------9--10------------
G|-------------------------------7--9--10-------------------
D|------------------6--7--9--10-----------------------------
A|------------7--8------------------------------------------
E|--7--8--10------------------------------------------------

Stave 4:

E|-------------------------------------------------------10--12--13--
B|----------------------------------------9--10--12--13--------------
G|---------------------------------9--10-----------------------------
D|----------------------9--10--12------------------------------------
A|--------------11--12-----------------------------------------------
E|--10--12--13-------------------------------------------------------

Stave 5:

E|----------------------------------------------------------12--13--16--
B|----------------------------------------------12--13--15--------------
G|--------------------------------------13--14--------------------------
D|--------------------------12--14--15----------------------------------
A|----------11--12--14--15----------------------------------------------
E|--12--13--------------------------------------------------------------

http://www.guitartabcreator.com
Guitar Tab Creator is intended to store guitar tab created through the tool. It currently does not support in-line text editing. Any text you place in here will be lost. If you need to comment on your tab, please use the "Tab Notes" section located below.