g major scale 3nps

Chords

01234567891011121314151617181920212223
E
B
G
D
A
E
B
0 1 2 3 4 5 6 7 8 9 10 11 12 13 14 15 16 17 18 19 20 21 22 23
(/) Slide Up  (\) Slide Down  (h) Hammer On  (p) Pull Off  (b) Bend (r) Release (v) Vibrato

Stave 1:

E|-----------------------------------------------5--7--8--
B|--------------------------------------5--7--8-----------
G|-----------------------------4--5--7--------------------
D|--------------------4--5--7-----------------------------
A|-----------3--5--7--------------------------------------
E|--3--5--7-----------------------------------------------

Stave 2:

E|--8--7--5-----------------------------------------------
B|-----------8--7--5--------------------------------------
G|--------------------7--5--4-----------------------------
D|-----------------------------7--5--4--------------------
A|--------------------------------------7--5--3-----------
E|-----------------------------------------------7--5--3--

							http://www.guitartabcreator.com
Instruments
{"strings":[[[".",".",".",".",".",".",".",".",".",".",".",".",".",".",".",5,7,8],[".",".",".",".",".",".",".",".",".",".",".",".",5,7,8,".",".","."],[".",".",".",".",".",".",".",".",".",4,5,7,".",".",".",".",".","."],[".",".",".",".",".",".",4,5,7,".",".",".",".",".",".",".",".","."],[".",".",".",3,5,7,".",".",".",".",".",".",".",".",".",".",".","."],[3,5,7,".",".",".",".",".",".",".",".",".",".",".",".",".",".","."]],[[8,7,5,".",".",".",".",".",".",".",".",".",".",".",".",".",".","."],[".",".",".",8,7,5,".",".",".",".",".",".",".",".",".",".",".","."],[".",".",".",".",".",".",7,5,4,".",".",".",".",".",".",".",".","."],[".",".",".",".",".",".",".",".",".",7,5,4,".",".",".",".",".","."],[".",".",".",".",".",".",".",".",".",".",".",".",7,5,3,".",".","."],[".",".",".",".",".",".",".",".",".",".",".",".",".",".",".",7,5,3]]],"numberofstrings":6,"notes":["E","B","G","D","A","E","B"],"capo":0,"stringnotes":["E4","B3","G3","D3","A2","E2"],"comments":["Stave 1:","Stave 2:"],"timing":[["W","W","W","W","W","W","W","W","W","W","W","W","W","W","W","W","W","W"],["W","W","W","W","W","W","W","W","W","W","W","W","W","W","W","W","W","W"]],"timingvisible":false,"tabcounter":18,"stave":1,"totalstaves":2,"instrument":"6guitar","selectedtuning":"6_standard","version":"13"}

Member for

3 years 9 months
Submitted by eric walker on Thu, 2020-09-17 05:15