g major postion 5 3nps

Chords

01234567891011121314151617181920212223
E
B
G
D
A
E
B
0 1 2 3 4 5 6 7 8 9 10 11 12 13 14 15 16 17 18 19 20 21 22 23
(/) Slide Up  (\) Slide Down  (h) Hammer On  (p) Pull Off  (b) Bend (r) Release (v) Vibrato

Stave 1:

E|------------------------------------------------------------------12--14--15--
B|------------------------------------------------------12--13--15--------------
G|------------------------------------------11--12--14--------------------------
D|------------------------------10--12--14--------------------------------------
A|------------------10--12--14--------------------------------------------------
E|--10--12--12--14--------------------------------------------------------------

Stave 2:

E|--15--14--12--------------------------------------------------------------
B|--------------15--13--12--------------------------------------------------
G|--------------------------14--12--11--------------------------------------
D|--------------------------------------14--12--10--------------------------
A|--------------------------------------------------14--12--10--------------
E|--------------------------------------------------------------14--12--10--

							http://www.guitartabcreator.com
Tab Notes
need repair 1st string
Instruments
{"strings":[[[".",".",".",".",".",".",".",".",".",".",".",".",".",".",".",".",12,14,15],[".",".",".",".",".",".",".",".",".",".",".",".",".",12,13,15,".",".","."],[".",".",".",".",".",".",".",".",".",".",11,12,14,".",".",".",".",".","."],[".",".",".",".",".",".",".",10,12,14,".",".",".",".",".",".",".",".","."],[".",".",".",".",10,12,14,".",".",".",".",".",".",".",".",".",".",".","."],[10,12,12,14,".",".",".",".",".",".",".",".",".",".",".",".",".",".","."]],[[15,14,12,".",".",".",".",".",".",".",".",".",".",".",".",".",".","."],[".",".",".",15,13,12,".",".",".",".",".",".",".",".",".",".",".","."],[".",".",".",".",".",".",14,12,11,".",".",".",".",".",".",".",".","."],[".",".",".",".",".",".",".",".",".",14,12,10,".",".",".",".",".","."],[".",".",".",".",".",".",".",".",".",".",".",".",14,12,10,".",".","."],[".",".",".",".",".",".",".",".",".",".",".",".",".",".",".",14,12,10]]],"numberofstrings":6,"notes":["E","B","G","D","A","E","B"],"capo":0,"stringnotes":["E4","B3","G3","D3","A2","E2"],"comments":["Stave 1:","Stave 2:"],"timing":[["W","W","W","W","W","W","W","W","W","W","W","W","W","W","W","W","W","W","W"],["W","W","W","W","W","W","W","W","W","W","W","W","W","W","W","W","W","W"]],"timingvisible":false,"tabcounter":18,"stave":1,"totalstaves":2,"instrument":"6guitar","selectedtuning":"6_standard","version":"13"}

Member for

3 years 9 months
Submitted by eric walker on Thu, 2020-09-17 05:34