g major 3ns 2

Chords

01234567891011121314151617181920212223
E
B
G
D
A
E
B
0 1 2 3 4 5 6 7 8 9 10 11 12 13 14 15 16 17 18 19 20 21 22 23
(/) Slide Up  (\) Slide Down  (h) Hammer On  (p) Pull Off  (b) Bend (r) Release (v) Vibrato

Stave 1:

E|------------------------------------------------7--8--10--
B|--------------------------------------7--8--10------------
G|-----------------------------5--7--9----------------------
D|--------------------5--7--9-------------------------------
A|-----------5--7--9----------------------------------------
E|--5--7--8-------------------------------------------------

Stave 2:

E|--10--8--7------------------------------------------------
B|------------10--8--7--------------------------------------
G|----------------------9--7--5-----------------------------
D|-------------------------------9--7--5--------------------
A|----------------------------------------9--7--5-----------
E|-------------------------------------------------8--7--5--

							http://www.guitartabcreator.com
Instruments
{"strings":[[[".",".",".",".",".",".",".",".",".",".",".",".",".",".",".",7,8,10],[".",".",".",".",".",".",".",".",".",".",".",".",7,8,10,".",".","."],[".",".",".",".",".",".",".",".",".",5,7,9,".",".",".",".",".","."],[".",".",".",".",".",".",5,7,9,".",".",".",".",".",".",".",".","."],[".",".",".",5,7,9,".",".",".",".",".",".",".",".",".",".",".","."],[5,7,8,".",".",".",".",".",".",".",".",".",".",".",".",".",".","."]],[[10,8,7,".",".",".",".",".",".",".",".",".",".",".",".",".",".","."],[".",".",".",10,8,7,".",".",".",".",".",".",".",".",".",".",".","."],[".",".",".",".",".",".",9,7,5,".",".",".",".",".",".",".",".","."],[".",".",".",".",".",".",".",".",".",9,7,5,".",".",".",".",".","."],[".",".",".",".",".",".",".",".",".",".",".",".",9,7,5,".",".","."],[".",".",".",".",".",".",".",".",".",".",".",".",".",".",".",8,7,5]]],"numberofstrings":6,"notes":["E","B","G","D","A","E","B"],"capo":0,"stringnotes":["E4","B3","G3","D3","A2","E2"],"comments":["Stave 1:","Stave 2:"],"timing":[["W","W","W","W","W","W","W","W","W","W","W","W","W","W","W","W","W","W"],["W","W","W","W","W","W","W","W","W","W","W","W","W","W","W","W","W","W"]],"timingvisible":false,"tabcounter":18,"stave":1,"totalstaves":2,"instrument":"6guitar","selectedtuning":"6_standard","version":"13"}

Member for

3 years 9 months
Submitted by eric walker on Thu, 2020-09-17 05:19