g major 3nps #4

Chords

01234567891011121314151617181920212223
E
B
G
D
A
E
B
0 1 2 3 4 5 6 7 8 9 10 11 12 13 14 15 16 17 18 19 20 21 22 23
(/) Slide Up  (\) Slide Down  (h) Hammer On  (p) Pull Off  (b) Bend (r) Release (v) Vibrato

Stave 1:

E|----------------------------------------------------------10--12--14--
B|----------------------------------------------10--12--13--------------
G|-----------------------------------9--11--12--------------------------
D|------------------------9--10--12-------------------------------------
A|-------------9--10--12------------------------------------------------
E|--8--10--12-----------------------------------------------------------

Stave 2:

E|--14--12--10----------------------------------------------------------
B|--------------13--12--10----------------------------------------------
G|--------------------------12--11--9-----------------------------------
D|-------------------------------------12--10--9------------------------
A|------------------------------------------------12--10--9-------------
E|-----------------------------------------------------------12--10--8--

							http://www.guitartabcreator.com
Instruments
{"strings":[[[".",".",".",".",".",".",".",".",".",".",".",".",".",".",".",10,12,14],[".",".",".",".",".",".",".",".",".",".",".",".",10,12,13,".",".","."],[".",".",".",".",".",".",".",".",".",9,11,12,".",".",".",".",".","."],[".",".",".",".",".",".",9,10,12,".",".",".",".",".",".",".",".","."],[".",".",".",9,10,12,".",".",".",".",".",".",".",".",".",".",".","."],[8,10,12,".",".",".",".",".",".",".",".",".",".",".",".",".",".","."]],[[14,12,10,".",".",".",".",".",".",".",".",".",".",".",".",".",".","."],[".",".",".",13,12,10,".",".",".",".",".",".",".",".",".",".",".","."],[".",".",".",".",".",".",12,11,9,".",".",".",".",".",".",".",".","."],[".",".",".",".",".",".",".",".",".",12,10,9,".",".",".",".",".","."],[".",".",".",".",".",".",".",".",".",".",".",".",12,10,9,".",".","."],[".",".",".",".",".",".",".",".",".",".",".",".",".",".",".",12,10,8]]],"numberofstrings":6,"notes":["E","B","G","D","A","E","B"],"capo":0,"stringnotes":["E4","B3","G3","D3","A2","E2"],"comments":["Stave 1:","Stave 2:"],"timing":[["W","W","W","W","W","W","W","W","W","W","W","W","W","W","W","W","W","W"],["W","W","W","W","W","W","W","W","W","W","W","W","W","W","W","W","W","W"]],"timingvisible":false,"tabcounter":18,"stave":1,"totalstaves":2,"instrument":"6guitar","selectedtuning":"6_standard","version":"13"}

Member for

3 years 9 months
Submitted by eric walker on Thu, 2020-09-17 05:28