g major 3np post 7

Chords

01234567891011121314151617181920212223
E
B
G
D
A
E
B
0 1 2 3 4 5 6 7 8 9 10 11 12 13 14 15 16 17 18 19 20 21 22 23
(/) Slide Up  (\) Slide Down  (h) Hammer On  (p) Pull Off  (b) Bend (r) Release (v) Vibrato

Stave 1:

E|-----------------------------------------------------------------15--17--19--
B|-----------------------------------------------------15--17--19--------------
G|-----------------------------------------14--16--17--------------------------
D|-----------------------------14--16--17--------------------------------------
A|-----------------14--15--17--------------------------------------------------
E|-----14--15--17--------------------------------------------------------------

Stave 2:

E|--19--17--15--------------------------------------------------------------
B|--------------19--17--15--------------------------------------------------
G|--------------------------17--16--14--------------------------------------
D|--------------------------------------17--16--14--------------------------
A|--------------------------------------------------17--15--14--------------
E|--------------------------------------------------------------17--15--14--

							http://www.guitartabcreator.com
Instruments
{"strings":[[["_",".",".",".",".",".",".",".",".",".",".",".",".",".",".",".",15,17,19],["_",".",".",".",".",".",".",".",".",".",".",".",".",15,17,19,".",".","."],["_",".",".",".",".",".",".",".",".",".",14,16,17,".",".",".",".",".","."],["_",".",".",".",".",".",".",14,16,17,".",".",".",".",".",".",".",".","."],["_",".",".",".",14,15,17,".",".",".",".",".",".",".",".",".",".",".","."],["_",14,15,17,".",".",".",".",".",".",".",".",".",".",".",".",".",".","."]],[[19,17,15,".",".",".",".",".",".",".",".",".",".",".",".",".",".","."],[".",".",".",19,17,15,".",".",".",".",".",".",".",".",".",".",".","."],[".",".",".",".",".",".",17,16,14,".",".",".",".",".",".",".",".","."],[".",".",".",".",".",".",".",".",".",17,16,14,".",".",".",".",".","."],[".",".",".",".",".",".",".",".",".",".",".",".",17,15,14,".",".","."],[".",".",".",".",".",".",".",".",".",".",".",".",".",".",".",17,15,14]]],"numberofstrings":6,"notes":["E","B","G","D","A","E","B"],"capo":0,"stringnotes":["E4","B3","G3","D3","A2","E2"],"comments":["Stave 1:","Stave 2:"],"timing":[[null,"W","W","W","W","W","W","W","W","W","W","W","W","W","W","W","W","W","W"],["W","W","W","W","W","W","W","W","W","W","W","W","W","W","W","W","W","W"]],"timingvisible":false,"tabcounter":18,"stave":1,"totalstaves":2,"instrument":"6guitar","selectedtuning":"6_standard","version":"13"}

Member for

3 years 9 months
Submitted by eric walker on Thu, 2020-09-17 05:45