g maj pos 6 3nps

Chords

01234567891011121314151617181920212223
E
B
G
D
A
E
B
0 1 2 3 4 5 6 7 8 9 10 11 12 13 14 15 16 17 18 19 20 21 22 23
(/) Slide Up  (\) Slide Down  (h) Hammer On  (p) Pull Off  (b) Bend (r) Release (v) Vibrato

Stave 1:

E|--------------------------------------------------------------14--15--17--
B|--------------------------------------------------13--15--17--------------
G|--------------------------------------12--14--16--------------------------
D|--------------------------12--14--16--------------------------------------
A|--------------12--14--15--------------------------------------------------
E|--12--14--15--------------------------------------------------------------

Stave 2:

E|--17--15--14--------------------------------------------------------------
B|--------------17--15--13--------------------------------------------------
G|--------------------------16--14--12--------------------------------------
D|--------------------------------------16--14--12--------------------------
A|--------------------------------------------------15--14--12--------------
E|--------------------------------------------------------------15--14--12--

							http://www.guitartabcreator.com
Instruments
{"strings":[[[".",".",".",".",".",".",".",".",".",".",".",".",".",".",".",14,15,17],[".",".",".",".",".",".",".",".",".",".",".",".",13,15,17,".",".","."],[".",".",".",".",".",".",".",".",".",12,14,16,".",".",".",".",".","."],[".",".",".",".",".",".",12,14,16,".",".",".",".",".",".",".",".","."],[".",".",".",12,14,15,".",".",".",".",".",".",".",".",".",".",".","."],[12,14,15,".",".",".",".",".",".",".",".",".",".",".",".",".",".","."]],[[17,15,14,".",".",".",".",".",".",".",".",".",".",".",".",".",".","."],[".",".",".",17,15,13,".",".",".",".",".",".",".",".",".",".",".","."],[".",".",".",".",".",".",16,14,12,".",".",".",".",".",".",".",".","."],[".",".",".",".",".",".",".",".",".",16,14,12,".",".",".",".",".","."],[".",".",".",".",".",".",".",".",".",".",".",".",15,14,12,".",".","."],[".",".",".",".",".",".",".",".",".",".",".",".",".",".",".",15,14,12]]],"numberofstrings":6,"notes":["E","B","G","D","A","E","B"],"capo":0,"stringnotes":["E4","B3","G3","D3","A2","E2"],"comments":["Stave 1:","Stave 2:"],"timing":[["W","W","W","W","W","W","W","W","W","W","W","W","W","W","W","W","W","W"],["W","W","W","W","W","W","W","W","W","W","W","W","W","W","W","W","W","W"]],"timingvisible":false,"tabcounter":18,"stave":1,"totalstaves":2,"instrument":"6guitar","selectedtuning":"6_standard","version":"13"}

Member for

3 years 9 months
Submitted by eric walker on Thu, 2020-09-17 05:39