Aeolian

Chords

01234567891011121314151617181920212223
E
B
G
D
A
E
B
0 1 2 3 4 5 6 7 8 9 10 11 12 13 14 15 16 17 18 19 20 21 22 23
(/) Slide Up  (\) Slide Down  (h) Hammer On  (p) Pull Off  (b) Bend (r) Release (v) Vibrato

Stave 1:

E|--------------------------------------------------4--5--7--
B|-----------------------------------------3--5--7-----------
G|--------------------------------2--4--6--------------------
D|-----------------------2--4--6-----------------------------
A|--------------2--4--5--------------------------------------
E|-----2--4--5-----------------------------------------------

Stave 2:

E|--7--5--4-----------------------------------------------
B|-----------7--5--3--------------------------------------
G|--------------------6--4--2-----------------------------
D|-----------------------------6--4--2--------------------
A|--------------------------------------5--4--2-----------
E|-----------------------------------------------5--4--2--

							http://www.guitartabcreator.com
Instruments
{"strings":[[["_",".",".",".",".",".",".",".",".",".",".",".",".",".",".",".",4,5,7],["_",".",".",".",".",".",".",".",".",".",".",".",".",3,5,7,".",".","."],["_",".",".",".",".",".",".",".",".",".",2,4,6,".",".",".",".",".","."],["_",".",".",".",".",".",".",2,4,6,".",".",".",".",".",".",".",".","."],["_",".",".",".",2,4,5,".",".",".",".",".",".",".",".",".",".",".","."],["_",2,4,5,".",".",".",".",".",".",".",".",".",".",".",".",".",".","."]],[[7,5,4,".",".",".",".",".",".",".",".",".",".",".",".",".",".","."],[".",".",".",7,5,3,".",".",".",".",".",".",".",".",".",".",".","."],[".",".",".",".",".",".",6,4,2,".",".",".",".",".",".",".",".","."],[".",".",".",".",".",".",".",".",".",6,4,2,".",".",".",".",".","."],[".",".",".",".",".",".",".",".",".",".",".",".",5,4,2,".",".","."],[".",".",".",".",".",".",".",".",".",".",".",".",".",".",".",5,4,2]]],"numberofstrings":6,"notes":["E","B","G","D","A","E","B"],"capo":0,"stringnotes":["E4","B3","G3","D3","A2","E2"],"comments":["Stave 1:","Stave 2:"],"timing":[[null,"W","W","W","W","W","W","W","W","W","W","W","W","W","W","W","W","W","W"],["W","W","W","W","W","W","W","W","W","W","W","W","W","W","W","W","W","W"]],"timingvisible":false,"tabcounter":18,"stave":1,"totalstaves":2,"instrument":"6guitar","selectedtuning":"6_standard","version":"13"}

Member for

3 years 9 months
Submitted by eric walker on Thu, 2020-09-17 06:49