Sound will begin in 5 seconds

Watch You Break

Chords
01234567891011121314151617181920212223
E
B
G
D
A
E
B
0 1 2 3 4 5 6 7 8 9 10 11 12 13 14 15 16 17 18 19 20 21 22 23
Song Science #1: How Pros Use 6 Chords to Write Hit Songs
(/) Slide Up  (\) Slide Down  (h) Hammer On  (p) Pull Off  (b) Bend (r) Release (v) Vibrato

Stave 1:

E|--------------------
B|--------------------
G|--------------------
D|--------------------
A|--------------------
E|--0--0--3--4--0--1--

Stave 2:

E|-------------------------------------------------------------------------
B|-------------------------------------------------------------------------
G|----3--------3-----------------------------------------------------------
D|--3--3--3--3--3--3--4--4--4--4--4--4--6--6--6--6--6--6--3--3--3--3--3--3--
A|--3--3--3--3--3--3--4--4--4--4--4--4--6--6--6--6--6--6--3--3--3--3--3--3--
E|--3--3--3--3--3--3--4--4--4--4--4--4--6--6--6--6--6--6--3--3--3--3--3--3--

Stave 3:

E|-------------
B|-------------
G|-------------
D|-------------
A|----------5--
E|--5--6--4-----

Stave 4:

E|--1-----1-----1-----
B|--1-----1-----1--2--
G|--1-----1--2--1--3--
D|--1--3--1--3--1--3--
A|--1--3--1--3--1-----
E|--1-----1-----1-----

Stave 5:

E|----------------------------------------------------------------
B|----------------------------------------------------------------
G|----------------------------------------------------------------
D|----5--5--5--5--5--5--5--5--5--5--3--3--3--3--3--3--3--3--3--3--
A|----5--5--5--5--5--5--5--5--5--5--3--3--3--3--3--3--3--3--3--3--
E|----3--3--3--3--3--3--3--3--3--3--1--1--1--1--1--1--1--1--1--1--

Stave 6:

E|-------------------------------------------------------------------------------------------
B|-------------------------------------------------------------------------------------------
G|-------------------------------------------------------------------------------------------
D|--3--3--3--3--3--3--4--4--4--4--4--4--6--6--6--6--6--6--3--3--3--3--3--3--1--1--1--1--1--1--
A|--3--3--3--3--3--3--4--4--4--4--4--4--6--6--6--6--6--6--3--3--3--3--3--3--1--1--1--1--1--1--
E|--3--3--3--3--3--3--4--4--4--4--4--4--6--6--6--6--6--6--3--3--3--3--3--3--1--1--1--1--1--1--

http://www.guitartabcreator.com
Guitar Tab Creator is intended to store guitar tab created through the tool. It currently does not support in-line text editing. Any text you place in here will be lost. If you need to comment on your tab, please use the "Tab Notes" section located below.