Por Que Me Enamore - Ulices Chaidez - Requinto

Chords

01234567891011121314151617181920212223
E
B
G
D
A
E
B
0 1 2 3 4 5 6 7 8 9 10 11 12 13 14 15 16 17 18 19 20 21 22 23
(/) Slide Up  (\) Slide Down  (h) Hammer On  (p) Pull Off  (b) Bend (r) Release (v) Vibrato

Stave 1:

E|--------------0--0--4--
B|--0--0-----0--0--2--5--
G|--2--2-----2-----------
D|-----------------------
A|-----------------------
E|-----------------------

Stave 2:

E|--4-----2--------2-----0-------------------------0--0--------2--------2--------2-----0-----0--
B|--5--3-----2--3-----2--0h2-----0-----0--0-----0--0--2-----3-----2--3-----2--3-----2--0--0--0--
G|-------------------------------2-----2--2-----2-----------------------------------------2-----
D|----------------------------------------------------------------------------------------------
A|----------------------------------------------------------------------------------------------
E|----------------------------------------------------------------------------------------------

Stave 3:

E|--------------------0--0--4-----0--0--
B|--0-----0--0--0--0--0--2--5-----2--2--
G|--1-----1--1--1--2--------------------
D|--------------------------------------
A|--------------------------------------
E|--------------------------------------

Stave 4:

E|-----2--------2-----0-------------------------0--0--------2--------2--------2-----0-----0--
B|--3-----2--3-----2--0h2-----0-----0--0-----0--0--2-----3-----2--3-----2--3-----2--0--0--0--
G|----------------------------2-----2--2-----2-----------------------------------------2-----
D|-------------------------------------------------------------------------------------------
A|-------------------------------------------------------------------------------------------
E|-------------------------------------------------------------------------------------------

Stave 5:

E|--0--0-----0-----0--0--0--0--0--
B|--0--0-----0-----0--0--2--2--0--
G|--------------------------------
D|--------------------------------
A|--------------------------------
E|--------------------------------

Stave 6:

E|-----------------0----0--0--
B|--0--0-----0--0--0h2--0--0--
G|--2--2-----2--2-------------
D|----------------------------
A|----------------------------
E|----------------------------

Stave 7:

E|--0--2--2--0--0--0--0--
B|--2--3--3--2--2--0--0--
G|-----------------------
D|-----------------------
A|-----------------------
E|-----------------------

Stave 8:

E|-------------------------------------------------------------------------------------------
B|-----2-----3-----5--7-----5----------------------------------------------------------------
G|--2-----4-----6--------------7--6--4-------------------------------------------------------
D|--------------------------------------7--4--2--0--4--2--0--------------------2-----6/7-----
A|-----------------------------------------------------------4--3--2--0-----4----------------
E|----------------------------------------------------------------------------------------5--

							http://www.guitartabcreator.com
Instruments
{"strings":[[[".",".","_",".",0,0,4],[0,0,"_",0,0,2,5],[2,2,"_",2,".",".","."],[".",".","_",".",".",".","."],[".",".","_",".",".",".","."],[".",".","_",".",".",".","."]],[[4,".",2,".",".",2,".",0,".",".",".",".",".","_",".","_",".",0,0,".",".",2,".",".",2,".",".",2,".",0,".",0],[5,3,".",2,3,".",2,0,"h",2,".",0,".",0,0,"_",0,0,2,".",3,".",2,3,".",2,3,".",2,0,0,0],[".",".",".",".",".",".",".",".",".",".",".",2,".",2,2,"_",2,".",".",".",".",".",".",".",".",".",".",".",".",".",2,"."],[".",".",".",".",".",".",".",".",".",".",".",".",".","_",".","_",".",".",".",".",".",".",".",".",".",".",".",".",".",".",".","."],[".",".",".",".",".",".",".",".",".",".",".",".",".","_",".","_",".",".",".",".",".",".",".",".",".",".",".",".",".",".",".","."],[".",".",".",".",".",".",".",".",".",".",".",".",".","_",".","_",".",".",".",".",".",".",".",".",".",".",".",".",".",".",".","."]],[[".","_",".",".",".",".",0,0,4,"_",0,0],[0,"_",0,0,0,0,0,2,5,"_",2,2],[1,"_",1,1,1,2,".",".",".","_",".","."],[".","_",".",".",".",".",".",".",".","_",".","."],[".","_",".",".",".",".",".",".",".","_",".","."],[".","_",".",".",".",".",".",".",".","_",".","."]],[[".",2,".",".",2,".",0,".",".","_",".","_",".",".","_",".",0,0,"_",".",2,".",".",2,".",".",2,".",0,".",0],[3,".",2,3,".",2,0,"h",2,"_",0,"_",0,0,"_",0,0,2,"_",3,".",2,3,".",2,3,".",2,0,0,0],[".",".",".",".",".",".",".",".",".","_",2,"_",2,2,"_",2,".",".","_",".",".",".",".",".",".",".",".",".",".",2,"."],[".",".",".",".",".",".",".",".",".","_",".","_",".",".","_",".",".",".","_",".",".",".",".",".",".",".",".",".",".",".","."],[".",".",".",".",".",".",".",".",".","_",".","_",".",".","_",".",".",".","_",".",".",".",".",".",".",".",".",".",".",".","."],[".",".",".",".",".",".",".",".",".","_",".","_",".",".","_",".",".",".","_",".",".",".",".",".",".",".",".",".",".",".","."]],[[0,0,"_",0,"_",0,0,0,0,0],[0,0,"_",0,"_",0,0,2,2,0],[".",".","_",".","_",".",".",".",".","."],[".",".","_",".","_",".",".",".",".","."],[".",".","_",".","_",".",".",".",".","."],[".",".","_",".","_",".",".",".",".","."]],[[".",".","_",".",".",0,".",".",0,0],[0,0,"_",0,0,0,"h",2,0,0],[2,2,"_",2,2,".",".",".",".","."],[".",".","_",".",".",".",".",".",".","."],[".",".","_",".",".",".",".",".",".","."],[".",".","_",".",".",".",".",".",".","."]],[[0,2,2,0,0,0,0],[2,3,3,2,2,0,0],[".",".",".",".",".",".","."],[".",".",".",".",".",".","."],[".",".",".",".",".",".","."],[".",".",".",".",".",".","."]],[[".",".",".",".",".",".",".","_",".",".",".",".",".",".",".",".",".",".",".",".",".",".",".","_",".",".","_",".",".",".","."],[".",2,".",3,".",5,7,"_",5,".",".",".",".",".",".",".",".",".",".",".",".",".",".","_",".",".","_",".",".",".","."],[2,".",4,".",6,".",".","_",".",7,6,4,".",".",".",".",".",".",".",".",".",".",".","_",".",".","_",".",".",".","."],[".",".",".",".",".",".",".","_",".",".",".",".",7,4,2,0,4,2,0,".",".",".",".","_",".",2,"_",6,"/",7,"."],[".",".",".",".",".",".",".","_",".",".",".",".",".",".",".",".",".",".",".",4,3,2,0,"_",4,".","_",".",".",".","."],[".",".",".",".",".",".",".","_",".",".",".",".",".",".",".",".",".",".",".",".",".",".",".","_",".",".","_",".",".",".",5]]],"numberofstrings":6,"notes":["E","B","G","D","A","E","B"],"capo":0,"stringnotes":["E4","B3","G3","D3","A2","E2"],"comments":["Stave 1:","Stave 2:","Stave 3:","Stave 4:","Stave 5:","Stave 6:","Stave 7:","Stave 8:","Stave 9:","Stave 10:"],"timing":[[null,null,null,null,null,"W","W"],[null,null,null,null,null,null,null,null,null,null,"W","W","W",null,null,"W","W","W","W","W","W","W","W","W","W","W","W","W","W","W","W","W",null,null,null,null,"W","W","W"],[null,null,null,null,null,null,null,null],[null,null,null,null,null,null,null,null,null,null,"W",null,"W","W",null,"W","W","W",null,"W","W","W","W","W","W","W","W","W","W","W","W"],[null,null,null,null,null,null,null,null,null,null,null,null],[null,null,null,null,null,null,null,null,null],["W","W","W","W","W","W","W"],["W","W","W","W","W","W","W",null,"W","W","W","W","W","W","W","W","W","W","W","W","W","W","W",null,"W","W",null,"W",null,"W","W"],[null,null,null,null,null,null,null,null,null,null],[]],"timingvisible":false,"tabcounter":31,"stave":7,"totalstaves":8,"instrument":"6guitar","selectedtuning":"6_standard","version":"13"}

Member for

1 month 4 weeks
Submitted by ereyes22 on Mon, 2020-10-05 15:13