The Dragonborn Comes - Acoustic guitar

Chords

01234567891011121314151617181920212223
E
B
G
D
A
E
B
0 1 2 3 4 5 6 7 8 9 10 11 12 13 14 15 16 17 18 19 20 21 22 23
(/) Slide Up  (\) Slide Down  (h) Hammer On  (p) Pull Off  (b) Bend (r) Release (v) Vibrato

Intro

E|-------------------------------
B|-----3-------3-------3-------3-
G|-----4-------0-------4-------0-
D|---4---4---4---4---4---4---4---
A|-2-------2-------2-------2-----
E|-------------------------------

Beginning verse

E|---------------------------------------------------------
B|-----3-------2-----3-------3-------3-----2-----3-------3-
G|-----4-------2-----4-------0-------4-----2-----4-------0-
D|---4---4---2-----4---4---4---4---4-----2-----4---4---4---
A|-2-------0-----2-------2-------2-----0-----2-------2-----
E|---------------------------------------------------------

							http://www.guitartabcreator.com
genre
Instruments
{"strings":[[[".",".",".",".",".",".",".",".",".",".",".",".",".",".","."],[".",".",3,".",".",".",3,".",".",".",3,".",".",".",3],[".",".",4,".",".",".",0,".",".",".",4,".",".",".",0],[".",4,".",4,".",4,".",4,".",4,".",4,".",4,"."],[2,".",".",".",2,".",".",".",2,".",".",".",2,".","."],[".",".",".",".",".",".",".",".",".",".",".",".",".",".","."]],[[".",".",".",".",".",".",".",".",".",".",".",".",".",".",".",".",".",".",".",".",".",".",".",".",".",".",".","."],[".",".",3,".",".",".",2,".",".",3,".",".",".",3,".",".",".",3,".",".",2,".",".",3,".",".",".",3],[".",".",4,".",".",".",2,".",".",4,".",".",".",0,".",".",".",4,".",".",2,".",".",4,".",".",".",0],[".",4,".",4,".",2,".",".",4,".",4,".",4,".",4,".",4,".",".",2,".",".",4,".",4,".",4,"."],[2,".",".",".",0,".",".",2,".",".",".",2,".",".",".",2,".",".",0,".",".",2,".",".",".",2,".","."],[".",".",".",".",".",".",".",".",".",".",".",".",".",".",".",".",".",".",".",".",".",".",".",".",".",".",".","."]]],"numberofstrings":6,"notes":["E","B","G","D","A","E","B"],"capo":0,"stringnotes":["E4","B3","G3","D3","A2","E2"],"comments":["Intro","Beginning verse"],"timing":[[null,null,null,null,null,null,null,null,null,null,"W","W","W","W","W"],["W","W","W","W","W","W","W","W","W","W","W","W","W","W","W","W","W","W","W","W","W","W","W","W","W","W","W","W","W"]],"timingvisible":false,"tabcounter":27,"stave":1,"totalstaves":2,"instrument":"6guitar","selectedtuning":"6_standard","version":"13"}

Member for

2 months 2 weeks
Submitted by Erevaan on Tue, 2020-09-15 11:34