Sound will begin in 5 seconds

Requiem

Chords
01234567891011121314151617181920212223
E
B
G
D
A
E
B
0 1 2 3 4 5 6 7 8 9 10 11 12 13 14 15 16 17 18 19 20 21 22 23
Song Science #1: How Pros Use 6 Chords to Write Hit Songs
(/) Slide Up  (\) Slide Down  (h) Hammer On  (p) Pull Off  (b) Bend (r) Release (v) Vibrato

Stave 1:

B |-------------------------------------------------------------------------------------------------------
Gb|-------------------------------------------------------------------------------------------------------
D |-9-9-9-9-9-9---------------------9-9-9-9-9-9-----------------------------------------------------------
A |-------------------------------------------------------------------------------------------------------
E |-------------8-8-8-7-7-7-8-8-8-8-------------8-8-8-7-7-7-4-4-4-4-4-4-7-7-7-7-7-7-8-8-8-7-7-7-8-8-8-8-8-
B |-------------------------------------------------------------------------------------------------------

Stave 2:

B |----------------------------------------------------------------------------------------|-
Gb|----------------------------------------------------------------------------------------|-
D |----------------------------------------9-9-9-9-9-9-------------------------------------|-
A |----------------------------------------------------------------------------------------|-
E |-7-7-7-7-7-7-8-8-8-11-11-11-10-10-10-10-------------8-8-8-11-11-11-10-10-10-11-13-13-13-|-
B |----------------------------------------------------------------------------------------|-

Stave 3:

B |----------------------------------------------------------------------------------------
Gb|----------------------------------------------------------------------------------------
D |--------------------------------------------------------------------------------------4-
A |------------------------7-6-7------------------------7-6-3------------------------7---5-
E |------------------------8-7-8------------------------8-7-4------------------------8-3---
B |-0-0-0-0-0----0-0-0-0-0-------0-0-0-0-0----0-0-0-0-0-------0-0-0-0-0----0-0-0-0-0---4---

Stave 4:

B |------
Gb|------
D |------
A |------
E |------
B |----0-

Stave 5:

B |---------------------------------------------------------------------|-
Gb|---------------------------------------------------------------------|-
D |---------------------------------------------------------------------|-
A |------------------------7-10-9-------------------------7-10-9--10-12-|-
E |------------------------8-11-10------------------------8-11-10-11-13-|-
B |-0-0-0-0-0----0-0-0-0-0---------0-0-0-0-0----0-0-0-0-0---------------|-

Stave 6:

B |-----------------------------------------------------|-
Gb|-----------------------------------------------------|-
D |-----------------------------------------------------|-
A |-----------------------------------------------------|-
E |-------------8---------------------------------------|-
B |-1-1-1-1-0-0---0-0-4-4-4-4-0-0-1-0-0-3-3-3-3-4-4-4-4-|-

Stave 7:

B |---------------------------------------|-
Gb|---------------------------------------|-
D |---------------------------------------|-
A |---------------------------------------|-
E |---------------------------------------|-
B |-0-0-13-0-0-12-0-0-16-0-0-15-0-0-16-18-|-

Stave 8:

B |-------------------------------------------------|-
Gb|-------------------------------------------------|-
D |-------------------------------------------------|-
A |-------------------------------------------------|-
E |-4-1-1-1-1-1-5-1-1-1-1-1-4-1-1-1-1-1-5-1-1-1-1-1-|-
B |-0-0-0-0-0-0-0-0-0-0-0-0-0-0-0-0-0-0-0-0-0-0-0-0-|-

Stave 9:

B |---------------------------------------|-
Gb|---------------------------------------|-
D |---------------------------------------|-
A |---------------------------------------|-
E |---------------------------------------|-
B |-0-0-13-0-0-12-0-0-16-0-0-15-0-0-16-18-|-

Stave 10:

B |-------------------------------------------|---------------------------------------------
Gb|-------------------------------------------|---------------------------------------------
D |-------------------------------------------|---------------------------------------------
A |-------------------------------------------|---------------------------------------------
E |-----------------2-------------------------|-----8-7-8-----8-----7-8-10-11-----8-7-8-----
B |-0h1-0h1-0h1-0h1-0-0h1-0h1-0h1-0h1-0-1-3-4-|-0-0-------0-0---0-0-----------0-0-------0-0-

Stave 11:

B |---------------|-
Gb|---------------|-
D |---------------|-
A |---------------|-
E |-8-----8-7-5-4-|-
B |---0-0---------|-

Stave 12:

B |------------------------------------------------|-------------------------------------------|-
Gb|------------------------------------------------|-------------------------------------------|-
D |------------------------------------------------|-------------------------------------------|-
A |------------------------------------------------|-------------------------------------------|-
E |-------7-5-7-------7-5-8-------8-11-11-11-11-11-|-------7-5-7-------7-5-8-------8-4-4-4-4-4-|-
B |-0-0-0-------0-0-0-------0-0-0------------------|-0-0-0-------0-0-0-------0-0-0-------------|-

Stave 13:

B |--------------------------------|-
Gb|--------------------------------|-
D |--------------------------------|-
A |--------------------------------|-
E |---------------------2----------|-
B |-0-0-0-4-3-1-1-1-1-1-0----------|-

Stave 14:

B |---------------------------------|-----------------------------|-
Gb|---------------------------------|-----------------------------|-
D |---------------------------------|-----------------------------|-
A |-----------------3-3-0-4-3-3-0-0-|-----------------------------|-
E |---------------------------------|-2---------------------------|-
B |-4-1-1-1-3-0-0-0-----------------|-0-0-0-4-3-0-0-1-------------|-

Stave 15:

B |-----------------------------------------------------------|-----------------------------------------
Gb|-----------------------------------------------------------|-----------------------------------------
D |-----------------------------------------------------------|-----------------------------------------
A |---------------3-3-0-3-2-2-0-0-------------5-5---6-5-5-----|-------------3-3-0-3-2-2-0-0-------------
E |-----------------------------------------------------------|-----------------------------------------
B |-4-1-1-3-0-0-0-----------------7-4-4-6-3-3-----3-------3-3-|-4-1-1-3-0-0-----------------7-4-4-6-3-3-

Stave 16:

B |-----------------
Gb|-----------------
D |-----------------
A |-------------5-5-
E |-----------------
B |-3-3-3-4-3-3-----

Stave 17:

B |---------------------------------|-----------------|-----------------
Gb|---------------------------------|-----------------|-----------------
D |---------------------------------|-----------------|-----------------
A |---------------------------------|-------------5-5-|-------------3-3-
E |---------------------------------|-----------------|-----------------
B |-7-4-0-6-3-0-4-1-0-0-0-0-0-0-0-0-|-3-3-3-4-3-3-----|-1-1-1-2-1-1-----

Stave 18:

B |--------------------------------
Gb|--------------------------------
D |--------------------------------
A |------------------------5-5-----
E |--------------------------------
B |-7-4-3-6-3----7-4-3-6-3-----3-3-

Stave 19:

B |---------------------------------
Gb|---------------------------------
D |---------------------------------
A |---------------------------------
E |---------------------------------
B |-0-0-4-1-0-3-0-0-0-4-1-0-3-0-0-0-

http://www.guitartabcreator.com
Guitar Tab Creator is intended to store guitar tab created through the tool. It currently does not support in-line text editing. Any text you place in here will be lost. If you need to comment on your tab, please use the "Tab Notes" section located below.