Sound will begin in 5 seconds

Miscreants

01234567891011121314151617181920212223
E
B
G
D
A
E
B
0 1 2 3 4 5 6 7 8 9 10 11 12 13 14 15 16 17 18 19 20 21 22 23
Song Science #1: How Pros Use 6 Chords to Write Hit Songs
(/) Slide Up  (\) Slide Down  (h) Hammer On  (p) Pull Off  (b) Bend (r) Release (v) Vibrato

Stave 1:

E|-------------------
B|-------------------
G|-------------------
D|-------------------
A|-2-1-2-4-2-1-2-4-5-
E|-3-2-3-5-3-2-3-5-6-

Stave 2:

E|---------------------|-
B|---------------------|-
G|---------------------|-
D|---------------------|-
A|-1-4-2-5--2-4-5--4-2-|-
E|-2-5-3-6--3-5-6--5-3-|-

Stave 3:

E|-----------------------------------------|-
B|-----------------------------------------|-
G|-----------------------------------------|-
D|-----------------------------------------|-
A|-----------------------------------------|-
E|-0-0-0-0-0-0-0-1-2-4-0-0-0-0-0-0-0-1-2-4-|-

Stave 4:

E|-----------------------------------------------------------------|-
B|-----------------------------------------------------------------|-
G|-----------------------------------------------------------------|-
D|---4---4-5-4-------5---5-7---7-8---4---4-5-4-------8---8-7---7-4-|-
A|-----------------------------------------------------------------|-
E|-2---2-------2-6-3---3-----5-----2---2-------5-2-6---6-----5-----|-

Stave 5:

E|---
B|---
G|---
D|---
A|---
E|-1-

Stave 6:

E|----------------------|-
B|----------------------|-
G|----------------------|-
D|----------------------|-
A|-4---4-8-5--4---4-8-5-|-
E|-2---2-6-3--2---2-6-3-|-

Stave 7:

E|---------------------------------------|-
B|---------------------------------------|-
G|---------------------------------------|-
D|---------------------------------------|-
A|-1--1-2-1--1-2-1-1-1--1-2-1-5--5-4-2-4-|-
E|-2--2-3-2--2-3-2-2-2--2-3-2-6--6-5-3-5-|-

Stave 8:

E|---------------------------------------------------------------|-
B|---------------------------------------------------------------|-
G|---------------------------------------------------------------|-
D|-8-----5-7---------------8-7---7-8-----5-7---------------------|-
A|---------------------------------------------------------------|-
E|---6-3-----5-5-5-5-5-5-5-----5-----6-3-----5-5-5-2-2-3-3-6-6-5-|-

Stave 9:

E|-------------------------------------------------------------|-
B|-------------------------------------------------------------|-
G|-------------------------------------------------------------|-
D|-8-----5-7---------------------8-----5-7---------------------|-
A|-------------------------------------------------------------|-
E|---6-3-----5-5-5-5-6-5-9-8-6-6---6-3-----5-5-5-5-5-6-5-2-2-2-|-

Stave 10:

E|-------------------------------------------------------------|---------------------|-
B|-------------------------------------------------------------|---------------------|-
G|-------------------------------------------------------------|---------------------|-
D|-8-----5-7---------------------------8-----5-7---------------|---------------------|-
A|-------------------------------------------------6-----------|---------------------|-
E|---6-3-----5-6-6-6-5-5-5-2-2-2-3-3-3---6-3-----5---3-2-3-6-5-|-6-9-7-10-7-9-10-9-7-|-

Stave 11:

E|-----------------------------|-
B|-----------------------------|-
G|-----------------------------|-
D|-8-----5-7-------------------|-
A|-----------------------------|-
E|---6-3-----5-6-6-6-5-5-2-2-2-|-

Stave 12:

E|-------------------------|-
B|-------------------------|-
G|-------------------------|-
D|-------------------------|-
A|-------------------------|-
E|-2-3-2-3-5-3-6-6-6-6-5-3-|-

http://www.guitartabcreator.com
Guitar Tab Creator is intended to store guitar tab created through the tool. It currently does not support in-line text editing. Any text you place in here will be lost. If you need to comment on your tab, please use the "Tab Notes" section located below.