Sound will begin in 5 seconds

Apophys nummer 10

01234567891011121314151617181920212223
E
B
G
D
A
E
B
0 1 2 3 4 5 6 7 8 9 10 11 12 13 14 15 16 17 18 19 20 21 22 23
Song Science #1: How Pros Use 6 Chords to Write Hit Songs
(/) Slide Up  (\) Slide Down  (h) Hammer On  (p) Pull Off  (b) Bend (r) Release (v) Vibrato

Stave 1:

E|---------------------------------------------------
B|---------------------------------------------------
G|---------------------------------------------------
D|-------------------------0-------------------------
A|-----7---1---1-----1---1---1---1-----7---1-----1---
E|-0h4---4---0---0h3---3-------3---0h4---4-----3---3-

Stave 2:

E|-------------------------------------------------------
B|-------------------------------------------------------
G|-------------------------------------------------------
D|-------------------------------------------------------
A|-7-7-7-7-7-7-7-7--1--1--1--1---1--1--1--1--1-1-1-1-1-1-
E|-4-4-4-4-4-4-4-4--0--0--0--3---3--3--3--3--3-3-3-3-3-3-

Stave 3:

E|--------------------------------------------------
B|--------------------------------------------------
G|--------------------------------------------------
D|-------------1------------------------------------
A|-7--0--1--2----1----1--1---4--1--1--7--4-----4----
E|-4--0--1--2------0--0--0---1--0--0--4--1--0--1--0-

Stave 4:

E|---------------------------------------------------------
B|---------------------------------------------------------
G|---------------------------------------------------------
D|---------------------------------------------------------
A|---------------------------------------------------------
E|-0-0-0-0-7p4p0-0-0-4p1p0-0-0-0-0-7p4p0-0-0-0-0-0-4-4-4-4-

Stave 5:

E|-----------------
B|-----------------
G|-----------------
D|-----------------
A|-----------------
E|-9-9-6-6-8-8-5-5-

Stave 6:

E|-------------------------------------------------------------
B|-------------------------------------------------------------
G|-------------------------------------------------------------
D|-------------------4---4-----3-------------------4---4-5---3-
A|-7-8---------------------5-----7-8---------------------------
E|-----9-6-6-9-6-5-2---2-----2-------9-6-6-9-6-5-2---2-----2---

Stave 7:

E|-------------------------------------------------------------
B|-------------------------------------------------------------
G|-------------------------------------------------------------
D|---------------7-4---4---4---3-------------------4---4-5-----
A|-2-3-----------------------5---7-8---------------------------
E|-0-1-9-6-6-9-6-----2---2-----------9-6-6-9-6-5-2---2-----2-1-

Stave 8:

E|-------------------------------------------|-------------------------------------------|-
B|-------------------------------------------|-------------------------------------------|-
G|-------------------------------------------|-------------------------------------------|-
D|-------------------------------------------|-------------------------------------------|-
A|-11-8-11-8-8-11-8-7-10-4-7-3-3-4-3-6-4-3-4-|-11-8-11-8-8-11-8-7-10-4-7-5-5-6-5-8-6-5-6-|-
E|-------------------------------------------|-------------------------------------------|-

Stave 9:

E|-------------------------------------------|-------------------------------------------|-
B|-------------------------------------------|-------------------------------------------|-
G|-------------------------------------------|-------------------------------------------|-
D|-------------------------------------------|-------------------------------------------|-
A|-------------------------------------------|-------------------------------------------|-
E|-12-9-12-9-9-12-9-8-11-5-8-4-4-5-4-7-5-4-5-|-12-9-12-9-9-12-9-8-11-5-8-6-6-7-6-9-7-6-7-|-

Stave 10:

E|------------------------------------------------------------------|-----------------|-
B|------------------------------------------------------------------|-----------------|-
G|------------------------------------------------------------------|-----------------|-
D|------------------------------------------------------------------|-----------------|-
A|-7-4----------------------------------------------8-7-7-7-7-4-4-4-|-----------------|-
E|-----4-1-1-1-5-2-2-2-4--6-3-3-3-7-4-4-4-6-6-6-6-6-----------------|-7-6-6-6-6-5-5-5-|-

http://www.guitartabcreator.com
Guitar Tab Creator is intended to store guitar tab created through the tool. It currently does not support in-line text editing. Any text you place in here will be lost. If you need to comment on your tab, please use the "Tab Notes" section located below.