The Base - Paul Banks

Chords

01234567891011121314151617181920212223
E
B
G
D
A
E
B
0 1 2 3 4 5 6 7 8 9 10 11 12 13 14 15 16 17 18 19 20 21 22 23
(/) Slide Up  (\) Slide Down  (h) Hammer On  (p) Pull Off  (b) Bend (r) Release (v) Vibrato

Stave 1:

E|----------------------------------------------------------------------------
B|---7---7---7-9-9---7---7---7---7---7-9-9---7---7------7---7---7-9-9---7---7-
G|-6---6---6-------6---6---6---6---6-------6---6------9---9---9-------9---9---
D|----------------------------------------------------------------------------
A|----------------------------------------------------------------------------
E|----------------------------------------------------------------------------

Stave 2:

E|-------------------------------------------------
B|-------------------------------------------------
G|-------------------------------------------------
D|-------------------------------------------------
A|-2/4-4-2/4-4-2/4-2-2/4-------------------5/7-6\0-
E|-----------------------0-0----0-0----0-0---------

Stave 3:

E|------9-----------11------12-------9-------------11-------12-
B|---10---10-----10------10-------10---10-------10-------10----
G|-9---------9-9-------9-------11---------11-11-------11-------
D|-------------------------------------------------------------
A|-------------------------------------------------------------
E|-------------------------------------------------------------

							http://www.guitartabcreator.com
Instruments
{"strings":[[[".",".",".",".",".",".",".",".",".",".",".",".",".",".",".",".",".",".",".",".",".",".",".",".","_",".",".",".",".",".",".",".",".",".",".",".","."],[".",7,".",7,".",7,9,9,".",7,".",7,".",7,".",7,".",7,9,9,".",7,".",7,"_",".",7,".",7,".",7,9,9,".",7,".",7],[6,".",6,".",6,".",".",".",6,".",6,".",6,".",6,".",6,".",".",".",6,".",6,".","_",9,".",9,".",9,".",".",".",9,".",9,"."],[".",".",".",".",".",".",".",".",".",".",".",".",".",".",".",".",".",".",".",".",".",".",".",".","_",".",".",".",".",".",".",".",".",".",".",".","."],[".",".",".",".",".",".",".",".",".",".",".",".",".",".",".",".",".",".",".",".",".",".",".",".","_",".",".",".",".",".",".",".",".",".",".",".","."],[".",".",".",".",".",".",".",".",".",".",".",".",".",".",".",".",".",".",".",".",".",".",".",".","_",".",".",".",".",".",".",".",".",".",".",".","."]],[[".",".",".",".",".",".",".",".",".",".",".",".",".",".",".",".",".","_",".",".","_",".",".",".",".",".",".",".","."],[".",".",".",".",".",".",".",".",".",".",".",".",".",".",".",".",".","_",".",".","_",".",".",".",".",".",".",".","."],[".",".",".",".",".",".",".",".",".",".",".",".",".",".",".",".",".","_",".",".","_",".",".",".",".",".",".",".","."],[".",".",".",".",".",".",".",".",".",".",".",".",".",".",".",".",".","_",".",".","_",".",".",".",".",".",".",".","."],[2,"/",4,4,2,"/",4,4,2,"/",4,2,2,"/",4,".",".","_",".",".","_",".",".",5,"/",7,6,"\\",0],[".",".",".",".",".",".",".",".",".",".",".",".",".",".",".",0,0,"_",0,0,"_",0,0,".",".",".",".",".","."]],[[".",".",9,".",".",".",".",11,".",".",12,".",".",9,".",".",".",".",11,".",".",12],[".",10,".",10,".",".",10,".",".",10,".",".",10,".",10,".",".",10,".",".",10,"."],[9,".",".",".",9,9,".",".",9,".",".",11,".",".",".",11,11,".",".",11,".","."],[".",".",".",".",".",".",".",".",".",".",".",".",".",".",".",".",".",".",".",".",".","."],[".",".",".",".",".",".",".",".",".",".",".",".",".",".",".",".",".",".",".",".",".","."],[".",".",".",".",".",".",".",".",".",".",".",".",".",".",".",".",".",".",".",".",".","."]]],"numberofstrings":6,"notes":["E","B","G","D","A","E","B"],"capo":0,"stringnotes":["E4","B3","G3","D3","A2","E2"],"comments":["Stave 1:","Stave 2:","Stave 3:"],"timing":[["W","W","W","W","W","W","W","W","W","W","W","W","W","W","W","W","W","W","W","W","W","W","W","W",null,"W","W","W","W","W","W","W","W","W","W","W","W"],["W","W","W","W","W","W","W","W","W",null,"W","W","W",null,"W","W","W",null,"W","W",null,"W","W","W",null,"W","W",null,"W"],["W","W","W","W","W","W","W","W","W","W","W","W","W","W","W","W","W","W","W","W","W","W"]],"timingvisible":false,"tabcounter":22,"stave":2,"totalstaves":3,"instrument":"6guitar","selectedtuning":"6_standard","version":"13"}

Member for

2 weeks 5 days
Submitted by erebus1992 on Thu, 2020-05-21 04:53