Sound will begin in 5 seconds

Great Balls of Fire - Jerry Lee Lewis

01234567891011121314151617181920212223
E
B
G
D
A
E
B
0 1 2 3 4 5 6 7 8 9 10 11 12 13 14 15 16 17 18 19 20 21 22 23
Song Science #1: How Pros Use 6 Chords to Write Hit Songs
(/) Slide Up  (\) Slide Down  (h) Hammer On  (p) Pull Off  (b) Bend (r) Release (v) Vibrato

Stave 1:

G|-----------------------------------------------------
D|--------------0-2-3----3-3-4-5----5-5-4-3------------
A|---0-2-3----3----------------------------------0-2-3-
E|-3-------------------------------------------3-------

Stave 2:

G|--------------------|--------------------|---------------7----
D|---------------7----|---------------7----|-----7-7-10-10---10-
A|-----7-7-10-10---10-|-----7-7-10-10---10-|-8-8----------------
E|-8-8----------------|-8-8----------------|--------------------

Stave 3:

G|---------------7----|-----------------9----|---------------7----
D|-----7-7-10-10---10-|-------9-9-12-12---12-|-----7-7-10-10---10-
A|-8-8----------------|-10-10----------------|-8-8----------------
E|--------------------|----------------------|--------------------

Stave 4:

G|---------------7----|---------------7----|--------------------
D|-----7-7-10-10---10-|-----7-7-10-10---10-|---------------7----
A|-8-8----------------|-8-8----------------|-----7-7-10-10---10-
E|--------------------|--------------------|-8-8----------------

Stave 5:

G|--------------------|---------------7----|---------------7----
D|---------------7----|-----7-7-10-10---10-|-----7-7-10-10------
A|-----7-7-10-10---10-|-8-8----------------|-8-8-------------10-
E|-8-8----------------|--------------------|--------------------

Stave 6:

G|-------------|----------------|----------------|----------------
D|-------------|----------------|----------------|----------------
A|----10-10-10-|-10----10-10-10-|-10----10-10-10-|-10----10-10-10-
E|-------------|----------------|----------------|----------------

Stave 7:

G|--------------------|--------------------|---------------7----
D|---------------7----|---------------7----|-----7-7-10-10---10-
A|-----7-7-10-10---10-|-----7-7-10-10---10-|-8-8----------------
E|-8-8----------------|-8-8----------------|--------------------

Stave 8:

G|---------------7----|-----------------9----|---------------7----
D|-----7-7-10-10---10-|-------9-9-12-12---12-|-----7-7-10-10---10-
A|-8-8----------------|-10-10----------------|-8-8----------------
E|--------------------|----------------------|--------------------

Stave 9:

G|-------------|----
D|----10-10-10-|-10-
A|-------------|----
E|-------------|----

http://www.guitartabcreator.com
Guitar Tab Creator is intended to store guitar tab created through the tool. It currently does not support in-line text editing. Any text you place in here will be lost. If you need to comment on your tab, please use the "Tab Notes" section located below.