Surfaris

Chords

01234567891011121314151617181920212223
E
B
G
D
A
E
B
0 1 2 3 4 5 6 7 8 9 10 11 12 13 14 15 16 17 18 19 20 21 22 23
(/) Slide Up  (\) Slide Down  (h) Hammer On  (p) Pull Off  (b) Bend (r) Release (v) Vibrato

Section A

E|-------------------------------
B|-------------------------------
G|-------------------------------
D|------8--9--10--10--10--8------
A|--10-----------------------10--
E|-------------------------------

Section B

E|-------------------------------
B|-------------------------------
G|------8--9--10--10--10--8------
D|--10-----------------------10--
A|-------------------------------
E|-------------------------------

Section C

E|------------------------------------------------------------
B|------------------------------------------------------------
G|------8--10--12--12--12--10----------12--10--10--10--8------
D|--10-------------------------12--12---------------------10--
A|------------------------------------------------------------
E|------------------------------------------------------------

Section D

E|-----------------------------------------------------------------------0--
B|-----------------------------------------------------------------------1--
G|-----------------------------------------------------------------------3--
D|------8--9--10--10--10--8----------10----------------------------------2--
A|--10-----------------------10--10------10--10--10--10--10--10--10--10--3--
E|--------------------------------------------------------------------------

							http://www.guitartabcreator.com
Tab Notes

Order of Play:

Section A x4

Section B x2

Section A x2

Section C x1

Section D x1

Instruments
{"title":"Surfaris","strings":[[[".",".",".",".",".",".",".","."],[".",".",".",".",".",".",".","."],[".",".",".",".",".",".",".","."],[".",8,9,10,10,10,8,"."],[10,".",".",".",".",".",".",10],[".",".",".",".",".",".",".","."]],[[".",".",".",".",".",".",".","."],[".",".",".",".",".",".",".","."],[".",8,9,10,10,10,8,"."],[10,".",".",".",".",".",".",10],[".",".",".",".",".",".",".","."],[".",".",".",".",".",".",".","."]],[[".",".",".",".",".",".",".",".",".",".",".",".",".",".","."],[".",".",".",".",".",".",".",".",".",".",".",".",".",".","."],[".",8,10,12,12,12,10,".",".",12,10,10,10,8,"."],[10,".",".",".",".",".",".",12,12,".",".",".",".",".",10],[".",".",".",".",".",".",".",".",".",".",".",".",".",".","."],[".",".",".",".",".",".",".",".",".",".",".",".",".",".","."]],[[".",".",".",".",".",".",".",".",".",".",".",".",".",".",".",".",".",".",0],[".",".",".",".",".",".",".",".",".",".",".",".",".",".",".",".",".",".",1],[".",".",".",".",".",".",".",".",".",".",".",".",".",".",".",".",".",".",3],[".",8,9,10,10,10,8,".",".",10,".",".",".",".",".",".",".",".",2],[10,".",".",".",".",".",".",10,10,".",10,10,10,10,10,10,10,10,3],[".",".",".",".",".",".",".",".",".",".",".",".",".",".",".",".",".",".","."]]],"numberofstrings":6,"notes":["E","B","G","D","A","E","B"],"capo":0,"stringnotes":["E4","B3","G3","D3","A2","E2"],"comments":["Section A","Section B","Section C","Section D"],"timing":[["W","W","W","W","W","W","W","W"],["W","W","W","W","W","W","W","W"],["W","W","W","W","W","W","W","W","W","W","W","W","W","W","W"],["W","W","W","W","W","W","W","W","W","W","W","W","W","W","W","W","W","W","W"]],"timingvisible":false,"tabcounter":19,"stave":3,"totalstaves":4,"instrument":"6guitar","selectedtuning":"6_standard","version":"13"}

Member for

3 months 3 weeks
Submitted by Eoin Brosnahan on Sat, 2020-04-04 11:10