Redbone Childish Gambino

Chords
01234567891011121314151617181920212223
E
B
G
D
A
E
B
0 1 2 3 4 5 6 7 8 9 10 11 12 13 14 15 16 17 18 19 20 21 22 23
(/) Slide Up  (\) Slide Down  (h) Hammer On  (p) Pull Off  (b) Bend (r) Release (v) Vibrato

Stave 1:

E|--6---------------------------------9--5/6----------------
B|-----9--7--5/6-------------------7----------6--7--9--6/7--
G|----------------6-----6h8--6--8---------------------------
D|-------------------8--------------------------------------
A|----------------------------------------------------------
E|----------------------------------------------------------

Stave 2:

E|--6---------------------------------9--5/6-------------
B|-----9--7--5/6-------------------7----------9--7-------
G|----------------6-----6h8--6--8-------------------6h8--
D|-------------------8-----------------------------------
A|-------------------------------------------------------
E|-------------------------------------------------------

							http://www.guitartabcreator.com
Instruments
{"strings":[[[6,".",".",".",".",".",".",".",".",".",".",".",".",".",9,5,"/",6,".",".",".",".",".","."],[".",9,7,5,"/",6,".",".",".",".",".",".",".",7,".",".",".",".",6,7,9,6,"/",7],[".",".",".",".",".",".",6,".",6,"h",8,6,8,".",".",".",".",".",".",".",".",".",".","."],[".",".",".",".",".",".",".",8,".",".",".",".",".",".",".",".",".",".",".",".",".",".",".","."],[".",".",".",".",".",".",".",".",".",".",".",".",".",".",".",".",".",".",".",".",".",".",".","."],[".",".",".",".",".",".",".",".",".",".",".",".",".",".",".",".",".",".",".",".",".",".",".","."]],[[6,".",".",".",".",".",".",".",".",".",".",".",".",".",9,5,"/",6,".",".",".",".","."],[".",9,7,5,"/",6,".",".",".",".",".",".",".",7,".",".",".",".",9,7,".",".","."],[".",".",".",".",".",".",6,".",6,"h",8,6,8,".",".",".",".",".",".",".",6,"h",8],[".",".",".",".",".",".",".",8,".",".",".",".",".",".",".",".",".",".",".",".",".",".","."],[".",".",".",".",".",".",".",".",".",".",".",".",".",".",".",".",".",".",".",".",".",".","."],[".",".",".",".",".",".",".",".",".",".",".",".",".",".",".",".",".",".",".",".",".",".","."]]],"numberofstrings":6,"notes":["E","B","G","D","A","E","B"],"capo":0,"stringnotes":["E4","B3","G3","D3","A2","E2"],"comments":["Stave 1:","Stave 2:"],"timing":[[null,null,null,null,null,null,null,null,null,null,null,null,null,null,null,null,null,null,null,null,null,null,null,null],[null,null,null,null,null,null,null,null,null,null,null,null,null,null,null,null,null,null,null,null,null,null,null]],"timingvisible":false,"tabcounter":23,"stave":1,"totalstaves":2,"instrument":"6guitar","selectedtuning":"6_standard","version":"13"}

Member for

2 months 1 week
Submitted by Eoin Brosnahan on Thu, 2020-05-21 06:30