Afternoon

Chords

01234567891011121314151617181920212223
E
B
G
D
A
E
B
0 1 2 3 4 5 6 7 8 9 10 11 12 13 14 15 16 17 18 19 20 21 22 23
(/) Slide Up  (\) Slide Down  (h) Hammer On  (p) Pull Off  (b) Bend (r) Release (v) Vibrato

Stave 1:

E|--------------------------------------------------------------------------0-----------------------------------------------------
B|-----------5-----------------5-----------------5-----------------5-----------------5-----------------5--------4--------4--------
G|--------6-----6-----------6-----6-----------6-----6-----------6-----6-----------6-----6-----------6-----6-----------2-----2-----
D|-----7-----------7-----7-----------7-----7-----------7-----7-----------7-----7-----------7-----7-----------7-----4-----------4--
A|--0-----------------0-----------------0-----------------0-----------------0-----------------0-----------------0-----------------
E|--------------------------------------------------------------------------------------------------------------------------------

Stave 2:

E|--------------------------------------------------------------------------------------------|--|---------------------------------
B|-----------4--------3--------3-----------------3--------2--------2-----------------2--------|--|-----------7------------------9--
G|--------2-----2-----------4-----4-----------4-----4-----------2-----2-----------2-----2-----|--|--------7-----7------------9-----
D|-----4-----------4-----2-----------2-----2-----------2-----2-----------2-----2-----------2--|--|-----9-----------9-----11--------
A|--0-----------------0-----------------0-----------------0-----------------0-----------------|--|--0-----------------0------------
E|--------------------------------------------------------------------------------------------|--|---------------------------------

Stave 3:

E|------------------------------|--|--
B|-------------------10---------|--|--
G|--9-------------9------9------|--|--
D|-----11-----11------------11--|--|--
A|---------0--------------------|--|--
E|------------------------------|--|--

							http://www.guitartabcreator.com
Instruments
{"strings":[[[".",".",".",".",".",".",".",".",".",".",".",".",".",".",".",".",".",".",".",".",".",".",".",".",0,".",".",".",".",".",".",".",".",".",".",".",".",".",".",".",".","."],[".",".",".",5,".",".",".",".",".",5,".",".",".",".",".",5,".",".",".",".",".",5,".",".",".",".",".",5,".",".",".",".",".",5,".",".",4,".",".",4,".","."],[".",".",6,".",6,".",".",".",6,".",6,".",".",".",6,".",6,".",".",".",6,".",6,".",".",".",6,".",6,".",".",".",6,".",6,".",".",".",2,".",2,"."],[".",7,".",".",".",7,".",7,".",".",".",7,".",7,".",".",".",7,".",7,".",".",".",7,".",7,".",".",".",7,".",7,".",".",".",7,".",4,".",".",".",4],[0,".",".",".",".",".",0,".",".",".",".",".",0,".",".",".",".",".",0,".",".",".",".",".",0,".",".",".",".",".",0,".",".",".",".",".",0,".",".",".",".","."],[".",".",".",".",".",".",".",".",".",".",".",".",".",".",".",".",".",".",".",".",".",".",".",".",".",".",".",".",".",".",".",".",".",".",".",".",".",".",".",".",".","."]],[[".",".",".",".",".",".",".",".",".",".",".",".",".",".",".",".",".",".",".",".",".",".",".",".",".",".",".",".",".",".","|","|",".",".",".",".",".",".",".",".",".","."],[".",".",".",4,".",".",3,".",".",3,".",".",".",".",".",3,".",".",2,".",".",2,".",".",".",".",".",2,".",".","|","|",".",".",".",7,".",".",".",".",".",9],[".",".",2,".",2,".",".",".",4,".",4,".",".",".",4,".",4,".",".",".",2,".",2,".",".",".",2,".",2,".","|","|",".",".",7,".",7,".",".",".",9,"."],[".",4,".",".",".",4,".",2,".",".",".",2,".",2,".",".",".",2,".",2,".",".",".",2,".",2,".",".",".",2,"|","|",".",9,".",".",".",9,".",11,".","."],[0,".",".",".",".",".",0,".",".",".",".",".",0,".",".",".",".",".",0,".",".",".",".",".",0,".",".",".",".",".","|","|",0,".",".",".",".",".",0,".",".","."],[".",".",".",".",".",".",".",".",".",".",".",".",".",".",".",".",".",".",".",".",".",".",".",".",".",".",".",".",".",".","|","|",".",".",".",".",".",".",".",".",".","."]],[[".",".",".",".",".",".",".",".","|","|"],[".",".",".",".",".",10,".",".","|","|"],[9,".",".",".",9,".",9,".","|","|"],[".",11,".",11,".",".",".",11,"|","|"],[".",".",0,".",".",".",".",".","|","|"],[".",".",".",".",".",".",".",".","|","|"]]],"numberofstrings":6,"notes":["E","B","G","D","A","E","B"],"capo":0,"stringnotes":["E4","B3","G3","D3","A2","E2"],"comments":["Stave 1:","Stave 2:","Stave 3:"],"timing":[[null,null,null,null,null,null,null,null,null,null,null,null,null,null,null,null,null,null,null,null,null,null,null,null,null,null,null,null,null,null,null,null,null,null,null,null,null,null,null,null,null,null,null,null,null,null,null,null],[null,null,null,null,null,null,null,null,null,null,null,null,null,null,null,null,null,null,null,null,null,null,null,null,null,null,null,null,null,null,null,null,"W","W","W","W","W","W","W","W","W","W","W"],["W","W","W","W","W","W","W","W"]],"timingvisible":false,"tabcounter":10,"stave":2,"totalstaves":3,"instrument":"6guitar","selectedtuning":"6_standard","version":"13"}

Member for

1 month
Submitted by eoconn on Wed, 2020-09-23 20:35